  0
SECTION
  2
HEADER
  9
$ACADVER
  1
AC1009
  9
$INSBASE
 10
0.0
 20
0.0
 30
0.0
  9
$EXTMIN
 10
-600.08239117460653
 20
-1231.638144310192
 30
-0.0015258207003583
  9
$EXTMAX
 10
2100.0824037474599
 20
2781.122582933227
 30
0.0000000349246037
  9
$LIMMIN
 10
0.0
 20
0.0
  9
$LIMMAX
 10
0.0
 20
0.0
  9
$ORTHOMODE
 70
     0
  9
$REGENMODE
 70
     1
  9
$FILLMODE
 70
     1
  9
$QTEXTMODE
 70
     0
  9
$MIRRTEXT
 70
     1
  9
$DRAGMODE
 70
     2
  9
$LTSCALE
 40
76.200000000000003
  9
$OSMODE
 70
   231
  9
$ATTMODE
 70
     1
  9
$TEXTSIZE
 40
0.0
  9
$TRACEWID
 40
1.0
  9
$TEXTSTYLE
  7
STANDARD
  9
$CLAYER
  8
DATA
  9
$CELTYPE
  6
BYLAYER
  9
$CECOLOR
 62
   256
  9
$DIMSCALE
 40
1.0
  9
$DIMASZ
 40
0.18
  9
$DIMEXO
 40
0.0625
  9
$DIMDLI
 40
0.38
  9
$DIMRND
 40
0.0
  9
$DIMDLE
 40
0.0
  9
$DIMEXE
 40
0.18
  9
$DIMTP
 40
0.0
  9
$DIMTM
 40
0.0
  9
$DIMTXT
 40
0.18
  9
$DIMCEN
 40
0.09
  9
$DIMTSZ
 40
0.0
  9
$DIMTOL
 70
     0
  9
$DIMLIM
 70
     0
  9
$DIMTIH
 70
     1
  9
$DIMTOH
 70
     1
  9
$DIMSE1
 70
     0
  9
$DIMSE2
 70
     0
  9
$DIMTAD
 70
     0
  9
$DIMZIN
 70
     0
  9
$DIMBLK
  1

  9
$DIMASO
 70
     1
  9
$DIMSHO
 70
     1
  9
$DIMPOST
  1

  9
$DIMAPOST
  1

  9
$DIMALT
 70
     0
  9
$DIMALTD
 70
     2
  9
$DIMALTF
 40
25.399999999999999
  9
$DIMLFAC
 40
1.0
  9
$DIMTOFL
 70
     0
  9
$DIMTVP
 40
0.0
  9
$DIMTIX
 70
     0
  9
$DIMSOXD
 70
     0
  9
$DIMSAH
 70
     0
  9
$DIMBLK1
  1

  9
$DIMBLK2
  1

  9
$DIMSTYLE
  2
STANDARD
  9
$DIMCLRD
 70
     0
  9
$DIMCLRE
 70
     0
  9
$DIMCLRT
 70
     0
  9
$DIMTFAC
 40
1.0
  9
$DIMGAP
 40
0.09
  9
$LUNITS
 70
     2
  9
$LUPREC
 70
     4
  9
$SKETCHINC
 40
0.1
  9
$FILLETRAD
 40
0.0
  9
$AUNITS
 70
     0
  9
$AUPREC
 70
     0
  9
$MENU
  1
acad
  9
$ELEVATION
 40
0.0
  9
$PELEVATION
 40
0.0
  9
$THICKNESS
 40
0.0
  9
$LIMCHECK
 70
     0
  9
$BLIPMODE
 70
     0
  9
$CHAMFERA
 40
0.0
  9
$CHAMFERB
 40
0.0
  9
$SKPOLY
 70
     0
  9
$TDCREATE
 40
2454784.7195138889
  9
$TDUPDATE
 40
2454784.7212777319
  9
$TDINDWG
 40
0.0002234491
  9
$TDUSRTIMER
 40
0.0002231366
  9
$USRTIMER
 70
     1
  9
$ANGBASE
 50
0.0
  9
$ANGDIR
 70
     0
  9
$PDMODE
 70
     1
  9
$PDSIZE
 40
-2.0
  9
$PLINEWID
 40
0.0
  9
$COORDS
 70
     1
  9
$SPLFRAME
 70
     0
  9
$SPLINETYPE
 70
     6
  9
$SPLINESEGS
 70
     8
  9
$ATTDIA
 70
     0
  9
$ATTREQ
 70
     1
  9
$HANDLING
 70
     1
  9
$HANDSEED
  5
8E1
  9
$SURFTAB1
 70
     6
  9
$SURFTAB2
 70
     6
  9
$SURFTYPE
 70
     6
  9
$SURFU
 70
     6
  9
$SURFV
 70
     6
  9
$UCSNAME
  2

  9
$UCSORG
 10
0.0
 20
0.0
 30
0.0
  9
$UCSXDIR
 10
1.0
 20
0.0
 30
0.0
  9
$UCSYDIR
 10
0.0
 20
1.0
 30
0.0
  9
$PUCSNAME
  2

  9
$PUCSORG
 10
0.0
 20
0.0
 30
0.0
  9
$PUCSXDIR
 10
1.0
 20
0.0
 30
0.0
  9
$PUCSYDIR
 10
0.0
 20
1.0
 30
0.0
  9
$USERI1
 70
     0
  9
$USERI2
 70
     0
  9
$USERI3
 70
     0
  9
$USERI4
 70
     0
  9
$USERI5
 70
     0
  9
$USERR1
 40
0.0
  9
$USERR2
 40
0.0
  9
$USERR3
 40
0.0
  9
$USERR4
 40
0.0
  9
$USERR5
 40
0.0
  9
$WORLDVIEW
 70
     1
  9
$SHADEDGE
 70
     3
  9
$SHADEDIF
 70
    70
  9
$TILEMODE
 70
     1
  9
$MAXACTVP
 70
    64
  9
$PLIMCHECK
 70
     0
  9
$PEXTMIN
 10
1.0000000000000000E+020
 20
1.0000000000000000E+020
 30
1.0000000000000000E+020
  9
$PEXTMAX
 10
-1.0000000000000000E+020
 20
-1.0000000000000000E+020
 30
-1.0000000000000000E+020
  9
$PLIMMIN
 10
0.0
 20
0.0
  9
$PLIMMAX
 10
12.0
 20
9.0
  9
$UNITMODE
 70
     0
  9
$VISRETAIN
 70
     0
  9
$PLINEGEN
 70
     1
  9
$PSLTSCALE
 70
     0
  0
ENDSEC
  0
SECTION
  2
TABLES
  0
TABLE
  2
VPORT
 70
     1
  0
VPORT
  2
*ACTIVE
 70
     0
 10
0.0
 20
0.0
 11
1.0
 21
1.0
 12
750.00000628642636
 22
774.74221931151726
 13
0.0
 23
0.0
 14
1.0
 24
1.0
 15
0.0
 25
0.0
 16
0.0
 26
0.0
 36
1.0
 17
0.0
 27
0.0
 37
0.0
 40
4045.9697815378472
 41
1.665745856353591
 42
50.0
 43
0.0
 44
0.0
 50
0.0
 51
0.0
 71
     0
 72
  2000
 73
     1
 74
     1
 75
     0
 76
     0
 77
     0
 78
     0
  0
ENDTAB
  0
TABLE
  2
LTYPE
 70
    11
  0
LTYPE
  2
CONTINUOUS
 70
     0
  3
Solid line
 72
    65
 73
     0
 40
0.0
  0
ENDTAB
  0
TABLE
  2
LAYER
 70
     5
  0
LAYER
  2
0
 70
     0
 62
     7
  6
CONTINUOUS
  0
LAYER
  2
DATA
 70
     0
 62
     7
  6
CONTINUOUS
  0
LAYER
  2
HIBINO-BASE
 70
     0
 62
     7
  6
CONTINUOUS
  0
LAYER
  2
SPEC
 70
     0
 62
     7
  6
CONTINUOUS
  0
LAYER
  2
DIMNSIONS
 70
     0
 62
     7
  6
CONTINUOUS
  0
ENDTAB
  0
TABLE
  2
STYLE
 70
     3
  0
STYLE
  2
STANDARD
 70
     0
 40
0.0
 41
1.0
 50
0.0
 71
     0
 42
0.0
  3
txt
  4
BIGFONT.SHX
  0
ENDTAB
  0
TABLE
  2
VIEW
 70
     0
  0
ENDTAB
  0
TABLE
  2
UCS
 70
     0
  0
ENDTAB
  0
TABLE
  2
APPID
 70
     3
  0
APPID
  2
ACAD
 70
     0
  0
APPID
  2
ACADANNOTATIVE
 70
     0
  0
APPID
  2
ACAD_MLEADERVER
 70
     0
  0
ENDTAB
  0
TABLE
  2
DIMSTYLE
 70
     2
  0
DIMSTYLE
  2
STANDARD
 70
     0
  3

  4

  5

  6

  7

 40
1.0
 41
0.18
 42
0.0625
 43
0.38
 44
0.18
 45
0.0
 46
0.0
 47
0.0
 48
0.0
140
0.18
141
0.09
142
0.0
143
25.399999999999999
144
1.0
145
0.0
146
1.0
147
0.09
 71
     0
 72
     0
 73
     1
 74
     1
 75
     0
 76
     0
 77
     0
 78
     0
170
     0
171
     2
172
     0
173
     0
174
     0
175
     0
176
     0
177
     0
178
     0
  0
ENDTAB
  0
ENDSEC
  0
SECTION
  2
BLOCKS
  0
BLOCK
  8
0
  2
$MODEL_SPACE
 70
     0
 10
0.0
 20
0.0
 30
0.0
  3
$MODEL_SPACE
  1

  0
ENDBLK
  5
5A7
  8
0
  0
BLOCK
 67
     1
  8
0
  2
$PAPER_SPACE
 70
     0
 10
0.0
 20
0.0
 30
0.0
  3
$PAPER_SPACE
  1

  0
ENDBLK
  5
5A3
 67
     1
  8
0
  0
ENDSEC
  0
SECTION
  2
ENTITIES
  0
LINE
  5
2C
  8
HIBINO-BASE
  6
CONTINUOUS
 62
     7
 10
-599.99999999999977
 20
2781.0003637500008
 30
0.0
 11
2100.0
 21
2781.0003637500008
 31
0.0
  0
LINE
  5
2D
  8
HIBINO-BASE
  6
CONTINUOUS
 62
     7
 10
2100.0
 20
-1118.9996362500001
 30
0.0
 11
-599.99999999999977
 21
-1118.9996362500001
 31
0.0
  0
LINE
  5
2E
  8
HIBINO-BASE
  6
CONTINUOUS
 62
     7
 10
-599.99999999999977
 20
-1118.9996362500001
 30
0.0
 11
-599.99999999999977
 21
2781.0003637500008
 31
0.0
  0
TEXT
  5
2F
  8
HIBINO-BASE
 62
     7
 10
-492.23999999999972
 20
-1213.941469583332
 30
0.0
 40
52.937337239583343
  1
Hibino Corporation
 41
0.7
 11
-492.23999999999972
 21
-1161.004132343749
 31
0.0
 73
     3
  0
LINE
  5
30
  8
HIBINO-BASE
  6
CONTINUOUS
 62
     7
 10
2100.0
 20
2781.0003637500008
 30
0.0
 11
2100.0
 21
-1118.9996362500001
 31
0.0
  0
LINE
  5
31
  8
HIBINO-BASE
  6
CONTINUOUS
 62
     7
 10
750.0
 20
-781.49963624999975
 30
0.0
 11
2100.0
 21
-781.49963624999975
 31
0.0
  0
LINE
  5
32
  8
HIBINO-BASE
  6
CONTINUOUS
 62
     7
 10
750.0
 20
-1118.9996362500001
 30
0.0
 11
750.0
 21
-781.49963624999975
 31
0.0
  0
TEXT
  5
33
  8
HIBINO-BASE
 62
     7
 10
763.49999999999989
 20
-819.1300362500001
 30
0.0
 40
24.4326171875
  1
NOTE
 41
0.7
 11
763.49999999999989
 21
-794.6974190625001
 31
0.0
 73
     3
  0
LINE
  5
34
  8
HIBINO-BASE
  6
CONTINUOUS
 62
     7
 10
1275.0
 20
-1118.9996362500001
 30
0.0
 11
1275.0
 21
-781.49963624999975
 31
0.0
  0
TEXT
  5
35
  8
HIBINO-BASE
 62
     7
 10
1288.5
 20
-819.1300362500001
 30
0.0
 40
24.4326171875
  1
TITLE
 41
0.7
 11
1288.5
 21
-794.6974190625001
 31
0.0
 73
     3
  0
TEXT
  5
36
  8
HIBINO-BASE
 62
     7
 10
1501.02585
 20
-1213.941469583332
 30
0.0
 40
52.937337239583343
  1
ヒビノ株式会社
 41
0.7
 11
1501.02585
 21
-1161.004132343749
 31
0.0
 73
     3
  0
LINE
  5
37
  8
HIBINO-BASE
  6
CONTINUOUS
 62
     7
 10
750.0
 20
-968.99963624999975
 30
0.0
 11
2100.0
 21
-968.99963624999975
 31
0.0
  0
TEXT
  5
38
  8
HIBINO-BASE
 62
     7
 10
1476.0
 20
-1005.785236249999
 30
0.0
 40
24.4326171875
  1
DRAWN
 41
0.7
 11
1476.0
 21
-981.35261906249957
 31
0.0
 73
     3
  0
TEXT
  5
39
  8
HIBINO-BASE
 62
     7
 10
1101.0
 20
-1005.785236249999
 30
0.0
 40
24.4326171875
  1
DATE
 41
0.7
 11
1101.0
 21
-981.35261906249957
 31
0.0
 73
     3
  0
TEXT
  5
3A
  8
HIBINO-BASE
 62
     7
 10
951.0
 20
-1005.785236249999
 30
0.0
 40
24.4326171875
  1
SCALE
 41
0.7
 11
951.0
 21
-981.35261906249957
 31
0.0
 73
     3
  0
TEXT
  5
3B
  8
HIBINO-BASE
 62
     7
 10
1288.5
 20
-1005.785236249999
 30
0.0
 40
24.4326171875
  1
DESIGN
 41
0.7
 11
1288.5
 21
-981.35261906249957
 31
0.0
 73
     3
  0
TEXT
  5
3C
  8
HIBINO-BASE
 62
     7
 10
1851.0
 20
-1005.785236249999
 30
0.0
 40
24.4326171875
  1
DRAWING NO.
 41
0.7
 11
1851.0
 21
-981.35261906249957
 31
0.0
 73
     3
  0
TEXT
  5
3D
  8
HIBINO-BASE
 62
     7
 10
1663.5
 20
-1005.785236249999
 30
0.0
 40
24.4326171875
  1
CHECK
 41
0.7
 11
1663.5
 21
-981.35261906249957
 31
0.0
 73
     3
  0
LINE
  5
3E
  8
HIBINO-BASE
  6
CONTINUOUS
 62
     7
 10
965.625
 20
-1100.2496362500001
 30
0.0
 11
1021.875
 21
-1043.9996362500001
 31
0.0
  0
TEXT
  5
3F
  8
HIBINO-BASE
 62
     7
 10
956.25
 20
-1065.184619583333
 30
0.0
 40
28.504720052083329
  1
1
 41
0.7
 11
956.25
 21
-1036.6798995312499
 31
0.0
 73
     3
  0
LINE
  5
40
  8
HIBINO-BASE
  6
CONTINUOUS
 62
     7
 10
937.5
 20
-1118.9996362500001
 30
0.0
 11
937.5
 21
-968.99963624999975
 31
0.0
  0
LINE
  5
41
  8
HIBINO-BASE
  6
CONTINUOUS
 62
     7
 10
1087.5
 20
-1118.9996362500001
 30
0.0
 11
1087.5
 21
-968.99963624999975
 31
0.0
  0
LINE
  5
42
  8
HIBINO-BASE
  6
CONTINUOUS
 62
     7
 10
1462.5
 20
-968.99963624999975
 30
0.0
 11
1462.5
 21
-1118.9996362500001
 31
0.0
  0
LINE
  5
43
  8
HIBINO-BASE
  6
CONTINUOUS
 62
     7
 10
1837.5
 20
-968.99963624999975
 30
0.0
 11
1837.5
 21
-1118.9996362500001
 31
0.0
  0
LINE
  5
44
  8
HIBINO-BASE
  6
CONTINUOUS
 62
     7
 10
1649.9999999999991
 20
-1118.9996362500001
 30
0.0
 11
1649.9999999999991
 21
-968.99963624999975
 31
0.0
  0
TEXT
  5
45
  8
HIBINO-BASE
 62
     7
 10
1100.3480999999999
 20
-1080.5957695833331
 30
0.0
 40
28.504720052083329
  1
'08.10.
 41
0.7
 11
1100.3480999999999
 21
-1052.0910495312501
 31
0.0
 73
     3
  0
TEXT
  5
46
  8
HIBINO-BASE
 62
     7
 10
1012.5
 20
-1093.309619583333
 30
0.0
 40
28.504720052083329
  1
15
 41
0.7
 11
1012.5
 21
-1064.8048995312499
 31
0.0
 73
     3
  0
TEXT
  5
47
  8
HIBINO-BASE
 62
     7
 10
1485.087150165519
 20
-1076.0449362500001
 30
0.0
 40
24.4326171875
  1
N.Sasaki
 41
0.7
 11
1485.087150165519
 21
-1051.6123190625001
 31
0.0
 73
     3
  0
TEXT
  5
48
  8
HIBINO-BASE
 62
     7
 10
808.25000000000011
 20
-1089.35963625
 30
0.0
 40
48.865234375000007
  1
A4
 41
0.7
 11
808.25000000000011
 21
-1040.4944018749991
 31
0.0
 73
     3
  0
TEXT
  5
49
  8
HIBINO-BASE
 62
     7
 10
764.37499999999989
 20
-1008.29146125
 30
0.0
 40
24.4326171875
  1
PAPER SIZE
 41
0.7
 11
764.37499999999989
 21
-983.85884406249988
 31
0.0
 73
     3
  0
TEXT
  5
4A
  8
SPEC
 62
     7
 10
-468.74999999999977
 20
2651.899413749999
 30
0.0
 40
36.64892578125
  1
仕様
 41
0.7
 11
-468.74999999999977
 21
2688.548339531249
 31
0.0
 73
     3
  0
TEXT
  5
4B
  8
SPEC
 62
     7
 10
90.085164371226028
 20
1924.429274558255
 30
0.0
 40
28.504720052083329
  1
LO-MID:80Hz～1.9kHz,±15dB,ピーキング(Q＝1.5)
 41
0.7
 11
90.085164371226028
 21
1952.933994610338
 31
0.0
 73
     3
  0
TEXT
  5
4C
  8
SPEC
 62
     7
 10
-473.06635404405512
 20
2588.7537308392648
 30
0.0
 40
28.504720052083329
  1
周波数特性
 41
0.7
 11
-473.06635404405512
 21
2617.2584508913478
 31
0.0
 73
     3
  0
TEXT
  5
4D
  8
SPEC
 62
     7
 10
-472.88621239613428
 20
2416.2554373333501
 30
0.0
 40
28.504720052083329
  1
最大入力信号レベル
 41
0.7
 11
-472.88621239613428
 21
2444.760157385434
 31
0.0
 73
     3
  0
TEXT
  5
4E
  8
SPEC
 62
     7
 10
-474.9256118375219
 20
2260.689375151675
 30
0.0
 40
28.504720052083329
  1
インピーダンス
 41
0.7
 11
-474.9256118375219
 21
2289.1940952037589
 31
0.0
 73
     3
  0
TEXT
  5
4F
  8
SPEC
 62
     7
 10
-474.8698979958653
 20
2534.6209101518398
 30
0.0
 40
28.504720052083329
  1
マイク等価入力ノイズ(150Ω)
 41
0.7
 11
-474.8698979958653
 21
2563.1256302039242
 31
0.0
 73
     3
  0
TEXT
  5
50
  8
SPEC
 62
     7
 10
-472.74609682482622
 20
2477.1554632043139
 30
0.0
 40
28.504720052083329
  1
THD+N(1kHz)
 41
0.7
 11
-472.74609682482622
 21
2505.660183256397
 31
0.0
 73
     3
  0
TEXT
  5
51
  8
SPEC
 62
     7
 10
-474.0
 20
2035.4688876321841
 30
0.0
 40
28.504720052083329
  1
イコライザ(モノラル入力)
 41
0.7
 11
-474.0
 21
2063.9736076842678
 31
0.0
 73
     3
  0
TEXT
  5
52
  8
SPEC
 62
     7
 10
88.446614383403585
 20
2418.633671102873
 30
0.0
 40
28.504720052083329
  1
マイク入力:+15dBu
 41
0.7
 11
88.446614383403585
 21
2447.138391154956
 31
0.0
 73
     3
  0
TEXT
  5
53
  8
SPEC
 62
     7
 10
86.821671810730763
 20
2369.8823862000659
 30
0.0
 40
28.504720052083329
  1
ライン入力:+30dBu
 41
0.7
 11
86.821671810730763
 21
2398.3871062521489
 31
0.0
 73
     3
  0
TEXT
  5
54
  8
SPEC
 62
     7
 10
90.366092626270984
 20
2587.1905209289121
 30
0.0
 40
28.504720052083329
  1
20Hz～20kHz(<1dB)
 41
0.7
 11
90.366092626270984
 21
2615.695240980996
 31
0.0
 73
     3
  0
TEXT
  5
55
  8
SPEC
 62
     7
 10
90.482344489401584
 20
2531.153986155206
 30
0.0
 40
28.504720052083329
  1
-128dBu
 41
0.7
 11
90.482344489401584
 21
2559.658706207289
 31
0.0
 73
     3
  0
TEXT
  5
56
  8
SPEC
 62
     7
 10
90.890236442020495
 20
2477.589471817515
 30
0.0
 40
28.504720052083329
  1
0.006%%%以下(+20dBu)
 41
0.7
 11
90.890236442020495
 21
2506.094191869598
 31
0.0
 73
     3
  0
TEXT
  5
57
  8
SPEC
 62
     7
 10
87.916314069336295
 20
2260.859843575337
 30
0.0
 40
28.504720052083329
  1
マイク入力:2kΩ
 41
0.7
 11
87.916314069336295
 21
2289.36456362742
 31
0.0
 73
     3
  0
TEXT
  5
58
  8
SPEC
 62
     7
 10
86.634717125560655
 20
2211.5686732738091
 30
0.0
 40
28.504720052083329
  1
ライン入力:10kΩ
 41
0.7
 11
86.634717125560655
 21
2240.0733933258921
 31
0.0
 73
     3
  0
TEXT
  5
59
  8
SPEC
 62
     7
 10
89.818660806658926
 20
1869.509786461123
 30
0.0
 40
28.504720052083329
  1
LF:80Hz,±15dB,シェルビング
 41
0.7
 11
89.818660806658926
 21
1898.014506513206
 31
0.0
 73
     3
  0
TEXT
  5
5A
  8
SPEC
 62
     7
 10
-474.0
 20
1475.1706160292949
 30
0.0
 40
28.504720052083329
  1
電源
 41
0.7
 11
-474.0
 21
1503.675336081378
 31
0.0
 73
     3
  0
TEXT
  5
5B
  8
SPEC
 62
     7
 10
90.890236442020495
 20
1475.2497325765671
 30
0.0
 40
28.504720052083329
  1
AC100V,50/60Hz,150W未満
 41
0.7
 11
90.890236442020495
 21
1503.7544526286499
 31
0.0
 73
     3
  0
LINE
  5
5C
  8
SPEC
  6
CONTINUOUS
 62
     7
 10
-487.49999999999977
 20
2631.0003637499999
 30
0.0
 11
1650.0
 21
2631.0003637499999
 31
0.0
  0
LINE
  5
5D
  8
SPEC
  6
CONTINUOUS
 62
     7
 10
-487.49999999999977
 20
2574.7503637499999
 30
0.0
 11
1650.0
 21
2574.7503637499999
 31
0.0
  0
LINE
  5
5E
  8
SPEC
  6
CONTINUOUS
 62
     7
 10
-487.49999999999977
 20
2304.7503637499999
 30
0.0
 11
1650.0
 21
2304.7503637499999
 31
0.0
  0
LINE
  5
5F
  8
SPEC
  6
CONTINUOUS
 62
     7
 10
-487.49999999999977
 20
2462.2503637499999
 30
0.0
 11
1650.0
 21
2462.2503637499999
 31
0.0
  0
LINE
  5
60
  8
SPEC
  6
CONTINUOUS
 62
     7
 10
-487.49999999999977
 20
2518.5003637499999
 30
0.0
 11
1650.0
 21
2518.5003637499999
 31
0.0
  0
LINE
  5
61
  8
SPEC
  6
CONTINUOUS
 62
     7
 10
75.0
 20
1798.500363749999
 30
0.0
 11
1650.0
 21
1798.500363749999
 31
0.0
  0
LINE
  5
62
  8
SPEC
  6
CONTINUOUS
 62
     7
 10
75.0
 20
1742.2503637499999
 30
0.0
 11
1650.0
 21
1742.2503637499999
 31
0.0
  0
LINE
  5
63
  8
SPEC
  6
CONTINUOUS
 62
     7
 10
75.0
 20
1967.2503637499999
 30
0.0
 11
1650.0
 21
1967.2503637499999
 31
0.0
  0
TEXT
  5
64
  8
SPEC
 62
     7
 10
-474.01325202209648
 20
1811.0227021500791
 30
0.0
 40
28.504720052083329
  1
イコライザ(ステレオ入力)
 41
0.7
 11
-474.01325202209648
 21
1839.5274222021631
 31
0.0
 73
     3
  0
LINE
  5
65
  8
SPEC
  6
CONTINUOUS
 62
     7
 10
-487.49999999999977
 20
1854.7503637499999
 30
0.0
 11
1650.0
 21
1854.7503637499999
 31
0.0
  0
TEXT
  5
66
  8
SPEC
 62
     7
 10
-473.38281040869617
 20
1586.8317510217489
 30
0.0
 40
28.504720052083329
  1
バイパスフィルター
 41
0.7
 11
-473.38281040869617
 21
1615.3364710738319
 31
0.0
 73
     3
  0
TEXT
  5
67
  8
SPEC
 62
     7
 10
88.096731238959237
 20
1586.7068791293341
 30
0.0
 40
28.504720052083329
  1
100Hz,18dB/oct
 41
0.7
 11
88.096731238959237
 21
1615.2115991814169
 31
0.0
 73
     3
  0
TEXT
  5
68
  8
SPEC
 62
     7
 10
-474.41101426046771
 20
1420.679273021344
 30
0.0
 40
28.504720052083329
  1
寸法 / 質量
 41
0.7
 11
-474.41101426046771
 21
1449.183993073427
 31
0.0
 73
     3
  0
LINE
  5
69
  8
SPEC
  6
CONTINUOUS
 62
     7
 10
-487.49999999999977
 20
1629.750363749999
 30
0.0
 11
1650.0
 21
1629.750363749999
 31
0.0
  0
TEXT
  5
6A
  8
SPEC
 62
     7
 10
88.503823881270364
 20
1417.346209142765
 30
0.0
 40
28.504720052083329
  1
台置き使用時:439(W)×209(H)×540(D)mm(つまみ・フェーダ除く) / 約11.0kg
 41
0.7
 11
88.503823881270364
 21
1445.850929194848
 31
0.0
 73
     3
  0
TEXT
  5
6B
  8
SPEC
 62
     7
 10
88.45157841950936
 20
2320.725116277561
 30
0.0
 40
28.504720052083329
  1
ステレオ入力:+15dBu(マイク入力)、＋20dBu(ライン入力)
 41
0.7
 11
88.45157841950936
 21
2349.2298363296441
 31
0.0
 73
     3
  0
LINE
  5
6C
  8
SPEC
  6
CONTINUOUS
 62
     7
 10
75.0
 20
2136.0003637499999
 30
0.0
 11
1650.0
 21
2136.0003637499999
 31
0.0
  0
LINE
  5
6D
  8
SPEC
  6
CONTINUOUS
 62
     7
 10
-487.49999999999977
 20
2079.7503637499999
 30
0.0
 11
1650.0
 21
2079.7503637499999
 31
0.0
  0
LINE
  5
6E
  8
SPEC
  6
CONTINUOUS
 62
     7
 10
75.0
 20
1967.2503637499999
 30
0.0
 11
1650.0
 21
1967.2503637499999
 31
0.0
  0
TEXT
  5
6F
  8
SPEC
 62
     7
 10
-475.29322413647452
 20
2148.6853095903812
 30
0.0
 40
28.504720052083329
  1
クロストーク
 41
0.7
 11
-475.29322413647452
 21
2177.1900296424651
 31
0.0
 73
     3
  0
TEXT
  5
70
  8
SPEC
 62
     7
 10
87.858296371415122
 20
2147.8191304166662
 30
0.0
 40
28.504720052083329
  1
チャンネルミュート:97dB以下
 41
0.7
 11
87.858296371415122
 21
2176.3238504687488
 31
0.0
 73
     3
  0
TEXT
  5
71
  8
SPEC
 62
     7
 10
85.641281817182715
 20
2092.4984839361709
 30
0.0
 40
28.504720052083329
  1
フェーダーしぼりきり:95dB以下
 41
0.7
 11
85.641281817182715
 21
2121.0032039882549
 31
0.0
 73
     3
  0
LINE
  5
72
  8
SPEC
  6
CONTINUOUS
 62
     7
 10
75.0
 20
1911.0003637499999
 30
0.0
 11
1650.0
 21
1911.0003637499999
 31
0.0
  0
TEXT
  5
73
  8
SPEC
 62
     7
 10
90.083525598265624
 20
2035.7224858385439
 30
0.0
 40
28.504720052083329
  1
HF:13kHz,±15dB,シェルビング
 41
0.7
 11
90.083525598265624
 21
2064.2272058906269
 31
0.0
 73
     3
  0
LINE
  5
74
  8
SPEC
  6
CONTINUOUS
 62
     7
 10
75.0
 20
1798.500363749999
 30
0.0
 11
1650.0
 21
1798.500363749999
 31
0.0
  0
LINE
  5
75
  8
SPEC
  6
CONTINUOUS
 62
     7
 10
75.0
 20
1686.000363749999
 30
0.0
 11
1650.0
 21
1686.000363749999
 31
0.0
  0
TEXT
  5
76
  8
SPEC
 62
     7
 10
90.089002400675568
 20
1756.411173407417
 30
0.0
 40
28.504720052083329
  1
HI-MID:2.5kHz,±15dB,ピーキング(Q＝0.8)
 41
0.7
 11
90.089002400675568
 21
1784.9158934595
 31
0.0
 73
     3
  0
TEXT
  5
77
  8
SPEC
 62
     7
 10
89.616234093947455
 20
1700.719570737501
 30
0.0
 40
28.504720052083329
  1
LO-MID:450Hz,±15dB,シェルビング(Q=0.8)
 41
0.7
 11
89.616234093947455
 21
1729.2242907895841
 31
0.0
 73
     3
  0
TEXT
  5
78
  8
SPEC
 62
     7
 10
89.819749773001604
 20
1812.3501799327789
 30
0.0
 40
28.504720052083329
  1
HF:13kHz,±15dB,シェルビング
 41
0.7
 11
89.819749773001604
 21
1840.8548999848631
 31
0.0
 73
     3
  0
LINE
  5
79
  8
SPEC
  6
CONTINUOUS
 62
     7
 10
-487.49999999999977
 20
1573.500363749999
 30
0.0
 11
1650.0
 21
1573.500363749999
 31
0.0
  0
LINE
  5
7A
  8
SPEC
  6
CONTINUOUS
 62
     7
 10
-487.49999999999977
 20
1461.000363749999
 30
0.0
 11
1650.0
 21
1461.000363749999
 31
0.0
  0
LINE
  5
7B
  8
SPEC
  6
CONTINUOUS
 62
     7
 10
-487.49999999999977
 20
2186.2503637499999
 30
0.0
 11
1650.0
 21
2186.2503637499999
 31
0.0
  0
LINE
  5
7C
  8
SPEC
  6
CONTINUOUS
 62
     7
 10
75.0
 20
2023.5003637499999
 30
0.0
 11
1650.0
 21
2023.5003637499999
 31
0.0
  0
TEXT
  5
7D
  8
SPEC
 62
     7
 10
90.487290921660104
 20
1980.2779669777469
 30
0.0
 40
28.504720052083329
  1
HI-MID:550Hz～13kHz,±15dB,ピーキング(Q＝1.5)
 41
0.7
 11
90.487290921660104
 21
2008.7826870298311
 31
0.0
 73
     3
  0
TEXT
  5
7E
  8
SPEC
 62
     7
 10
89.349427492615163
 20
1644.7351575340199
 30
0.0
 40
28.504720052083329
  1
LF:80Hz,±15dB,シェルビング
 41
0.7
 11
89.349427492615163
 21
1673.2398775861029
 31
0.0
 73
     3
  0
LINE
  5
7F
  8
SPEC
  6
CONTINUOUS
 62
     7
 10
-487.49999999999977
 20
1517.250363749999
 30
0.0
 11
1650.0
 21
1517.250363749999
 31
0.0
  0
LINE
  5
80
  8
SPEC
  6
CONTINUOUS
 62
     7
 10
-487.49999999999977
 20
1348.500363749999
 30
0.0
 11
1650.0
 21
1348.500363749999
 31
0.0
  0
TEXT
  5
81
  8
SPEC
 62
     7
 10
-476.20336257918569
 20
1530.921894276994
 30
0.0
 40
28.504720052083329
  1
ファンタム電源の切替方法
 41
0.7
 11
-476.20336257918569
 21
1559.426614329077
 31
0.0
 73
     3
  0
TEXT
  5
82
  8
SPEC
 62
     7
 10
79.403570210899005
 20
1533.1923396558079
 30
0.0
 40
28.504720052083329
  1
１チャンネル毎に個別切替
 41
0.7
 11
79.403570210899005
 21
1561.697059707891
 31
0.0
 73
     3
  0
TEXT
  5
83
  8
SPEC
 62
     7
 10
86.913690908196685
 20
1364.874291330239
 30
0.0
 40
28.504720052083329
  1
ラックマウント時:483(W)×140(H)×444(D)mm(つまみ・フェーダ除く) / 約12.5kg
 41
0.7
 11
86.913690908196685
 21
1393.3790113823229
 31
0.0
 73
     3
  0
LINE
  5
84
  8
SPEC
  6
CONTINUOUS
 62
     7
 10
-487.49999999999977
 20
2631.0003637499999
 30
0.0
 11
-487.49999999999977
 21
1348.500363749999
 31
0.0
  0
LINE
  5
85
  8
SPEC
  6
CONTINUOUS
 62
     7
 10
1650.0
 20
2631.0003637499999
 30
0.0
 11
1650.0
 21
1348.500363749999
 31
0.0
  0
LINE
  5
86
  8
SPEC
  6
CONTINUOUS
 62
     7
 10
75.0
 20
2631.0003637499999
 30
0.0
 11
75.0
 21
1348.500363749999
 31
0.0
  0
TEXT
  5
87
  8
DIMNSIONS
 62
     7
 10
450.0
 20
-934.95728625000015
 30
0.0
 40
36.64892578125
  1
(単位：mm)
 41
0.7
 11
450.0
 21
-898.30836046875015
 31
0.0
 73
     3
  0
LINE
  5
88
  8
DIMNSIONS
  6
CONTINUOUS
 62
     7
 10
48.0
 20
-700.0
 30
0.0
 11
-55.0
 21
-700.0
 31
0.0
  0
LINE
  5
89
  8
DIMNSIONS
  6
CONTINUOUS
 62
     7
 10
48.0
 20
-256.0
 30
0.0
 11
-55.0
 21
-256.0
 31
0.0
  0
LINE
  5
8A
  8
DIMNSIONS
  6
CONTINUOUS
 62
     7
 10
-25.0
 20
-700.0
 30
0.0
 11
-25.0
 21
-256.0
 31
0.0
  0
LINE
  5
8B
  8
DIMNSIONS
  6
CONTINUOUS
 62
     7
 10
-25.0
 20
-700.0
 30
0.0
 11
-35.05059692725365
 21
-662.49066162109375
 31
0.0
  0
LINE
  5
8C
  8
DIMNSIONS
  6
CONTINUOUS
 62
     7
 10
-25.0
 20
-700.0
 30
0.0
 11
-14.94940307274635
 21
-662.49066162109375
 31
0.0
  0
LINE
  5
8D
  8
DIMNSIONS
  6
CONTINUOUS
 62
     7
 10
-25.0
 20
-256.0
 30
0.0
 11
-14.94940307274635
 21
-293.50933837890619
 31
0.0
  0
LINE
  5
8E
  8
DIMNSIONS
  6
CONTINUOUS
 62
     7
 10
-25.0
 20
-256.0
 30
0.0
 11
-35.05059692725365
 21
-293.50933837890619
 31
0.0
  0
TEXT
  5
8F
  8
DIMNSIONS
 62
     7
 10
-39.908333333333452
 20
-517.68749999999989
 30
0.0
 40
40.721028645833343
  1
444
 50
90.0
 41
0.7
 11
-80.629361979166788
 21
-517.68749999999989
 31
0.0
 73
     3
  0
LINE
  5
90
  8
DIMNSIONS
  6
CONTINUOUS
 62
     7
 10
78.0
 20
-730.0
 30
0.0
 11
78.0
 21
-855.0
 31
0.0
  0
LINE
  5
91
  8
DIMNSIONS
  6
CONTINUOUS
 62
     7
 10
561.0
 20
-730.0
 30
0.0
 11
561.0
 21
-855.0
 31
0.0
  0
LINE
  5
92
  8
DIMNSIONS
  6
CONTINUOUS
 62
     7
 10
78.0
 20
-825.0
 30
0.0
 11
561.0
 21
-825.0
 31
0.0
  0
LINE
  5
93
  8
DIMNSIONS
  6
CONTINUOUS
 62
     7
 10
78.0
 20
-825.0
 30
0.0
 11
115.50933837890619
 21
-814.94940307274635
 31
0.0
  0
LINE
  5
94
  8
DIMNSIONS
  6
CONTINUOUS
 62
     7
 10
78.0
 20
-825.0
 30
0.0
 11
115.50933837890619
 21
-835.05059692725365
 31
0.0
  0
LINE
  5
95
  8
DIMNSIONS
  6
CONTINUOUS
 62
     7
 10
561.0
 20
-825.0
 30
0.0
 11
523.49066162109375
 21
-835.05059692725365
 31
0.0
  0
LINE
  5
96
  8
DIMNSIONS
  6
CONTINUOUS
 62
     7
 10
561.0
 20
-825.0
 30
0.0
 11
523.49066162109375
 21
-814.94940307274635
 31
0.0
  0
TEXT
  5
97
  8
DIMNSIONS
 62
     7
 10
279.8125
 20
-810.09166666666658
 30
0.0
 40
40.721028645833343
  1
483
 41
0.7
 11
279.8125
 21
-769.37063802083333
 31
0.0
 73
     3
  0
LINE
  5
98
  8
DIMNSIONS
  6
CONTINUOUS
 62
     7
 10
100.0
 20
395.0
 30
0.0
 11
100.0
 21
270.0
 31
0.0
  0
LINE
  5
99
  8
DIMNSIONS
  6
CONTINUOUS
 62
     7
 10
539.0
 20
395.0
 30
0.0
 11
539.0
 21
270.0
 31
0.0
  0
LINE
  5
9A
  8
DIMNSIONS
  6
CONTINUOUS
 62
     7
 10
100.0
 20
300.0
 30
0.0
 11
539.0
 21
300.0
 31
0.0
  0
LINE
  5
9B
  8
DIMNSIONS
  6
CONTINUOUS
 62
     7
 10
100.0
 20
300.0
 30
0.0
 11
137.50933837890619
 21
310.05059692725359
 31
0.0
  0
LINE
  5
9C
  8
DIMNSIONS
  6
CONTINUOUS
 62
     7
 10
100.0
 20
300.0
 30
0.0
 11
137.50933837890619
 21
289.94940307274641
 31
0.0
  0
LINE
  5
9D
  8
DIMNSIONS
  6
CONTINUOUS
 62
     7
 10
539.0
 20
300.0
 30
0.0
 11
501.49066162109369
 21
289.94940307274641
 31
0.0
  0
LINE
  5
9E
  8
DIMNSIONS
  6
CONTINUOUS
 62
     7
 10
539.0
 20
300.0
 30
0.0
 11
501.49066162109369
 21
310.05059692725359
 31
0.0
  0
TEXT
  5
9F
  8
DIMNSIONS
 62
     7
 10
285.3125
 20
314.90833333333342
 30
0.0
 40
40.721028645833343
  1
439
 41
0.7
 11
285.3125
 21
355.62936197916667
 31
0.0
 73
     3
  0
LINE
  5
A0
  8
DIMNSIONS
  6
CONTINUOUS
 62
     7
 10
788.10344228705026
 20
854.96936142877405
 30
0.0
 11
788.10344228705026
 21
1055.0
 31
0.0
  0
LINE
  5
A1
  8
DIMNSIONS
  6
CONTINUOUS
 62
     7
 10
997.10344228705037
 20
936.35000000000002
 30
0.0
 11
997.10344228705037
 21
1055.0
 31
0.0
  0
LINE
  5
A2
  8
DIMNSIONS
  6
CONTINUOUS
 62
     7
 10
788.10344228705026
 20
1025.0
 30
0.0
 11
997.10344228705037
 21
1025.0
 31
0.0
  0
LINE
  5
A3
  8
DIMNSIONS
  6
CONTINUOUS
 62
     7
 10
788.10344228705026
 20
1025.0
 30
0.0
 11
825.61278066595662
 21
1035.0505969272531
 31
0.0
  0
LINE
  5
A4
  8
DIMNSIONS
  6
CONTINUOUS
 62
     7
 10
788.10344228705026
 20
1025.0
 30
0.0
 11
825.61278066595662
 21
1014.949403072746
 31
0.0
  0
LINE
  5
A5
  8
DIMNSIONS
  6
CONTINUOUS
 62
     7
 10
997.10344228705037
 20
1025.0
 30
0.0
 11
959.59410390814412
 21
1014.949403072746
 31
0.0
  0
LINE
  5
A6
  8
DIMNSIONS
  6
CONTINUOUS
 62
     7
 10
997.10344228705037
 20
1025.0
 30
0.0
 11
959.59410390814412
 21
1035.0505969272531
 31
0.0
  0
TEXT
  5
A7
  8
DIMNSIONS
 62
     7
 10
852.91594228705026
 20
1039.9083333333331
 30
0.0
 40
40.721028645833343
  1
209
 41
0.7
 11
852.91594228705026
 21
1080.6293619791661
 31
0.0
 73
     3
  0
LINE
  5
A8
  8
DIMNSIONS
  6
CONTINUOUS
 62
     7
 10
82.5
 20
-144.0
 30
0.0
 11
-55.0
 21
-144.0
 31
0.0
  0
LINE
  5
A9
  8
DIMNSIONS
  6
CONTINUOUS
 62
     7
 10
48.0
 20
-125.0
 30
0.0
 11
-55.0
 21
-125.0
 31
0.0
  0
LINE
  5
AA
  8
DIMNSIONS
  6
CONTINUOUS
 62
     7
 10
-25.0
 20
-125.0
 30
0.0
 11
-25.0
 21
-144.0
 31
0.0
  0
LINE
  5
AB
  8
DIMNSIONS
  6
CONTINUOUS
 62
     7
 10
-25.0
 20
-144.0
 30
0.0
 11
-25.0
 21
-212.9166666666666
 31
0.0
  0
LINE
  5
AC
  8
DIMNSIONS
  6
CONTINUOUS
 62
     7
 10
-25.0
 20
-144.0
 30
0.0
 11
-14.94940307274635
 21
-181.50933837890619
 31
0.0
  0
LINE
  5
AD
  8
DIMNSIONS
  6
CONTINUOUS
 62
     7
 10
-25.0
 20
-144.0
 30
0.0
 11
-35.05059692725365
 21
-181.50933837890619
 31
0.0
  0
LINE
  5
AE
  8
DIMNSIONS
  6
CONTINUOUS
 62
     7
 10
-25.0
 20
-125.0
 30
0.0
 11
-25.0
 21
-50.0
 31
0.0
  0
LINE
  5
AF
  8
DIMNSIONS
  6
CONTINUOUS
 62
     7
 10
-25.0
 20
-125.0
 30
0.0
 11
-35.05059692725365
 21
-87.49066162109375
 31
0.0
  0
LINE
  5
B0
  8
DIMNSIONS
  6
CONTINUOUS
 62
     7
 10
-25.0
 20
-125.0
 30
0.0
 11
-14.94940307274635
 21
-87.49066162109375
 31
0.0
  0
TEXT
  5
B1
  8
DIMNSIONS
 62
     7
 10
-39.908333333333452
 20
-212.91666666666671
 30
0.0
 40
40.721028645833343
  1
19
 50
90.0
 41
0.7
 11
-80.629361979166788
 21
-212.91666666666671
 31
0.0
 73
     3
  0
LINE
  5
B2
  8
DIMNSIONS
  6
CONTINUOUS
 62
     7
 10
48.0
 20
-125.0
 30
0.0
 11
-55.0
 21
-125.0
 31
0.0
  0
LINE
  5
B3
  8
DIMNSIONS
  6
CONTINUOUS
 62
     7
 10
70.0
 20
15.0
 30
0.0
 11
-55.0
 21
15.0
 31
0.0
  0
LINE
  5
B4
  8
DIMNSIONS
  6
CONTINUOUS
 62
     7
 10
-25.0
 20
-125.0
 30
0.0
 11
-25.0
 21
15.0
 31
0.0
  0
LINE
  5
B5
  8
DIMNSIONS
  6
CONTINUOUS
 62
     7
 10
-25.0
 20
-125.0
 30
0.0
 11
-35.05059692725365
 21
-87.49066162109375
 31
0.0
  0
LINE
  5
B6
  8
DIMNSIONS
  6
CONTINUOUS
 62
     7
 10
-25.0
 20
-125.0
 30
0.0
 11
-14.94940307274635
 21
-87.49066162109375
 31
0.0
  0
LINE
  5
B7
  8
DIMNSIONS
  6
CONTINUOUS
 62
     7
 10
-25.0
 20
15.0
 30
0.0
 11
-14.94940307274635
 21
-22.50933837890625
 31
0.0
  0
LINE
  5
B8
  8
DIMNSIONS
  6
CONTINUOUS
 62
     7
 10
-25.0
 20
15.0
 30
0.0
 11
-35.05059692725365
 21
-22.50933837890625
 31
0.0
  0
TEXT
  5
B9
  8
DIMNSIONS
 62
     7
 10
-39.908333333333452
 20
-94.6875
 30
0.0
 40
40.721028645833343
  1
140
 50
90.0
 41
0.7
 11
-80.629361979166788
 21
-94.6875
 31
0.0
 73
     3
  0
LINE
  5
BA
  8
DIMNSIONS
  6
CONTINUOUS
 62
     7
 10
98.299999999999983
 20
-12.0
 30
0.0
 11
98.299999999999983
 21
130.0
 31
0.0
  0
LINE
  5
BB
  8
DIMNSIONS
  6
CONTINUOUS
 62
     7
 10
540.69999999999993
 20
-12.0
 30
0.0
 11
540.69999999999993
 21
130.0
 31
0.0
  0
LINE
  5
BC
  8
DIMNSIONS
  6
CONTINUOUS
 62
     7
 10
98.299999999999983
 20
100.0
 30
0.0
 11
540.69999999999993
 21
100.0
 31
0.0
  0
LINE
  5
BD
  8
DIMNSIONS
  6
CONTINUOUS
 62
     7
 10
98.299999999999983
 20
100.0
 30
0.0
 11
135.8093383789062
 21
110.05059692725359
 31
0.0
  0
LINE
  5
BE
  8
DIMNSIONS
  6
CONTINUOUS
 62
     7
 10
98.299999999999983
 20
100.0
 30
0.0
 11
135.8093383789062
 21
89.94940307274635
 31
0.0
  0
LINE
  5
BF
  8
DIMNSIONS
  6
CONTINUOUS
 62
     7
 10
540.69999999999993
 20
100.0
 30
0.0
 11
503.19066162109362
 21
89.94940307274635
 31
0.0
  0
LINE
  5
C0
  8
DIMNSIONS
  6
CONTINUOUS
 62
     7
 10
540.69999999999993
 20
100.0
 30
0.0
 11
503.19066162109362
 21
110.05059692725359
 31
0.0
  0
TEXT
  5
C1
  8
DIMNSIONS
 62
     7
 10
279.81249999999989
 20
114.9083333333333
 30
0.0
 40
40.721028645833343
  1
442
 41
0.7
 11
279.81249999999989
 21
155.6293619791667
 31
0.0
 73
     3
  0
LINE
  5
C2
  8
DIMNSIONS
  6
CONTINUOUS
 62
     7
 10
71.299999999999955
 20
15.0
 30
0.0
 11
-55.0
 21
15.0
 31
0.0
  0
LINE
  5
C3
  8
DIMNSIONS
  6
CONTINUOUS
 62
     7
 10
81.649999999999963
 20
20.0
 30
0.0
 11
-55.0
 21
20.0
 31
0.0
  0
LINE
  5
C4
  8
DIMNSIONS
  6
CONTINUOUS
 62
     7
 10
-25.0
 20
20.0
 30
0.0
 11
-25.0
 21
15.0
 31
0.0
  0
LINE
  5
C5
  8
DIMNSIONS
  6
CONTINUOUS
 62
     7
 10
-25.0
 20
15.0
 30
0.0
 11
-25.0
 21
-60.0
 31
0.0
  0
LINE
  5
C6
  8
DIMNSIONS
  6
CONTINUOUS
 62
     7
 10
-25.0
 20
15.0
 30
0.0
 11
-14.94940307274635
 21
-22.50933837890625
 31
0.0
  0
LINE
  5
C7
  8
DIMNSIONS
  6
CONTINUOUS
 62
     7
 10
-25.0
 20
15.0
 30
0.0
 11
-35.05059692725365
 21
-22.50933837890625
 31
0.0
  0
LINE
  5
C8
  8
DIMNSIONS
  6
CONTINUOUS
 62
     7
 10
-25.0
 20
20.0
 30
0.0
 11
-25.0
 21
65.958333333333371
 31
0.0
  0
LINE
  5
C9
  8
DIMNSIONS
  6
CONTINUOUS
 62
     7
 10
-25.0
 20
20.0
 30
0.0
 11
-35.05059692725365
 21
57.50933837890625
 31
0.0
  0
LINE
  5
CA
  8
DIMNSIONS
  6
CONTINUOUS
 62
     7
 10
-25.0
 20
20.0
 30
0.0
 11
-14.94940307274635
 21
57.50933837890625
 31
0.0
  0
TEXT
  5
CB
  8
DIMNSIONS
 62
     7
 10
-39.908333333333331
 20
39.499999999999879
 30
0.0
 40
40.721028645833343
  1
5
 50
90.0
 41
0.7
 11
-80.629361979166674
 21
39.499999999999901
 31
0.0
 73
     3
  0
LINE
  5
CC
  8
DIMNSIONS
  6
CONTINUOUS
 62
     7
 10
991.48825449655965
 20
498.0
 30
0.0
 11
991.48825449655965
 21
863.0
 31
0.0
  0
ARC
  5
CD
  8
DIMNSIONS
  6
CONTINUOUS
 62
     7
 10
991.48825449655965
 20
446.79162833079971
 30
0.0
 40
360.79672409555559
 50
90.0
 51
104.53
  0
LINE
  5
CE
  8
DIMNSIONS
  6
CONTINUOUS
 62
     7
 10
900.96908623915772
 20
796.04877757197494
 30
0.0
 11
934.93277750310153
 21
814.87515906032638
 31
0.0
  0
LINE
  5
CF
  8
DIMNSIONS
  6
CONTINUOUS
 62
     7
 10
900.96908623915772
 20
796.04877757197494
 30
0.0
 11
939.79569642419983
 21
795.37105657025245
 31
0.0
  0
LINE
  5
D0
  8
DIMNSIONS
  6
CONTINUOUS
 62
     7
 10
991.48825449655965
 20
807.58835242635541
 30
0.0
 11
953.9789161176534
 21
797.53775549910165
 31
0.0
  0
LINE
  5
D1
  8
DIMNSIONS
  6
CONTINUOUS
 62
     7
 10
991.48825449655965
 20
807.58835242635541
 30
0.0
 11
953.9789161176534
 21
817.63894935360895
 31
0.0
  0
ARC
  5
D2
  8
DIMNSIONS
  6
CONTINUOUS
 62
     7
 10
991.48825449655965
 20
446.79162833079971
 30
0.0
 40
360.79672409555559
 50
73.79832428703314
 51
90.0
  0
TEXT
  5
D3
  8
DIMNSIONS
 62
     7
 10
994.98794506134084
 20
830.77396251896971
 30
0.0
 40
40.721028645833343
  1
14.5°
 50
347.54838623504338
 41
0.7
 11
1003.768011922719
 21
870.53716912865468
 31
0.0
 73
     3
  0
LINE
  5
D4
  8
DIMNSIONS
  6
CONTINUOUS
 62
     7
 10
70.0
 20
425.0
 30
0.0
 11
-30.0
 21
425.0
 31
0.0
  0
LINE
  5
D5
  8
DIMNSIONS
  6
CONTINUOUS
 62
     7
 10
70.0
 20
965.0
 30
0.0
 11
-30.0
 21
965.0
 31
0.0
  0
LINE
  5
D6
  8
DIMNSIONS
  6
CONTINUOUS
 62
     7
 10
0.0
 20
425.0
 30
0.0
 11
0.0
 21
965.0
 31
0.0
  0
LINE
  5
D7
  8
DIMNSIONS
  6
CONTINUOUS
 62
     7
 10
0.0
 20
425.0
 30
0.0
 11
-10.05059692725365
 21
462.50933837890631
 31
0.0
  0
LINE
  5
D8
  8
DIMNSIONS
  6
CONTINUOUS
 62
     7
 10
0.0
 20
425.0
 30
0.0
 11
10.05059692725365
 21
462.50933837890631
 31
0.0
  0
LINE
  5
D9
  8
DIMNSIONS
  6
CONTINUOUS
 62
     7
 10
0.0
 20
965.0
 30
0.0
 11
10.05059692725365
 21
927.49066162109364
 31
0.0
  0
LINE
  5
DA
  8
DIMNSIONS
  6
CONTINUOUS
 62
     7
 10
0.0
 20
965.0
 30
0.0
 11
-10.05059692725365
 21
927.49066162109364
 31
0.0
  0
TEXT
  5
DB
  8
DIMNSIONS
 62
     7
 10
-14.90833333333345
 20
655.3125
 30
0.0
 40
40.721028645833343
  1
540
 50
90.0
 41
0.7
 11
-55.629361979166802
 21
655.3125
 31
0.0
 73
     3
  0
TEXT
  5
DC
  8
DATA
 62
     7
 10
1459.032234278068
 20
-937.48550065869949
 30
0.0
 40
36.64892578125
  1
^IGB2R 12/2
 41
0.7
 11
1459.032234278068
 21
-900.83657487744961
 31
0.0
 73
     3
  0
TEXT
  5
DD
  8
DATA
 62
     7
 10
-449.99999999999977
 20
-1055.4296362499999
 30
0.0
 40
24.4326171875
  1
仕様および外観は予告なく変更されることがありますので、ご了承ください。
 41
0.7
 11
-449.99999999999977
 21
-1030.9970190624999
 31
0.0
 73
     3
  0
TEXT
  5
DE
  8
DATA
 62
     7
 10
1485.750342357589
 20
-837.94266463409576
 30
0.0
 40
36.64892578125
  1
Soundcraft
 41
0.7
 11
1485.750342357589
 21
-801.29373885284576
 31
0.0
 73
     3
  0
LINE
  5
DF
  8
DATA
  6
CONTINUOUS
 62
     7
 10
539.0
 20
425.0
 30
0.0
 11
100.0
 21
425.0
 31
0.0
  0
LINE
  5
E0
  8
DATA
  6
CONTINUOUS
 62
     7
 10
100.0
 20
-700.0
 30
0.0
 11
100.0
 21
-256.0
 31
0.0
  0
LINE
  5
E1
  8
DATA
  6
CONTINUOUS
 62
     7
 10
539.0
 20
-700.0
 30
0.0
 11
100.0
 21
-700.0
 31
0.0
  0
LINE
  5
E2
  8
DATA
  6
CONTINUOUS
 62
     7
 10
539.0
 20
-256.0
 30
0.0
 11
539.0
 21
-700.0
 31
0.0
  0
LINE
  5
E3
  8
DATA
  6
CONTINUOUS
 62
     7
 10
100.0
 20
-256.0
 30
0.0
 11
539.0
 21
-256.0
 31
0.0
  0
LINE
  5
E4
  8
DATA
  6
CONTINUOUS
 62
     7
 10
100.0
 20
-124.0
 30
0.0
 11
100.0
 21
-42.0
 31
0.0
  0
LINE
  5
E5
  8
DATA
  6
CONTINUOUS
 62
     7
 10
101.2999999999999
 20
-34.0
 30
0.0
 11
101.2999999999999
 21
-29.0
 31
0.0
  0
LINE
  5
E6
  8
DATA
  6
CONTINUOUS
 62
     7
 10
537.69999999999993
 20
-28.51145487875727
 30
0.0
 11
537.69999999999993
 21
-33.51145487875727
 31
0.0
  0
LINE
  5
E7
  8
DATA
  6
CONTINUOUS
 62
     7
 10
539.0
 20
-42.0
 30
0.0
 11
539.0
 21
-124.0
 31
0.0
  0
LINE
  5
E8
  8
DATA
  6
CONTINUOUS
 62
     7
 10
100.0
 20
-256.0
 30
0.0
 11
78.0
 21
-256.0
 31
0.0
  0
LINE
  5
E9
  8
DATA
  6
CONTINUOUS
 62
     7
 10
100.0
 20
-700.0
 30
0.0
 11
78.0
 21
-700.0
 31
0.0
  0
LINE
  5
EA
  8
DATA
  6
CONTINUOUS
 62
     7
 10
539.0
 20
-256.0
 30
0.0
 11
561.0
 21
-256.0
 31
0.0
  0
LINE
  5
EB
  8
DATA
  6
CONTINUOUS
 62
     7
 10
539.0
 20
-700.0
 30
0.0
 11
561.0
 21
-700.0
 31
0.0
  0
LINE
  5
EC
  8
DATA
  6
CONTINUOUS
 62
     7
 10
78.0
 20
-256.0
 30
0.0
 11
78.0
 21
-700.0
 31
0.0
  0
LINE
  5
ED
  8
DATA
  6
CONTINUOUS
 62
     7
 10
561.0
 20
-256.0
 30
0.0
 11
561.0
 21
-700.0
 31
0.0
  0
LINE
  5
EE
  8
DATA
  6
CONTINUOUS
 62
     7
 10
100.0
 20
-112.0
 30
0.0
 11
539.0
 21
-112.0
 31
0.0
  0
LINE
  5
EF
  8
DATA
  6
CONTINUOUS
 62
     7
 10
78.0
 20
-125.0
 30
0.0
 11
78.0
 21
-123.2999999999999
 31
0.0
  0
LINE
  5
F0
  8
DATA
  6
CONTINUOUS
 62
     7
 10
561.0
 20
-125.0
 30
0.0
 11
561.0
 21
-123.2999999999999
 31
0.0
  0
LINE
  5
F1
  8
DATA
  6
CONTINUOUS
 62
     7
 10
99.0
 20
-125.0
 30
0.0
 11
78.0
 21
-125.0
 31
0.0
  0
LINE
  5
F2
  8
DATA
  6
CONTINUOUS
 62
     7
 10
540.0
 20
-125.0
 30
0.0
 11
561.0
 21
-125.0
 31
0.0
  0
LINE
  5
F3
  8
DATA
  6
CONTINUOUS
 62
     7
 10
98.299999999999983
 20
-42.0
 30
0.0
 11
100.0
 21
-42.0
 31
0.0
  0
LINE
  5
F4
  8
DATA
  6
CONTINUOUS
 62
     7
 10
539.0
 20
-42.0
 30
0.0
 11
540.69999999999993
 21
-42.0
 31
0.0
  0
LINE
  5
F5
  8
DATA
  6
CONTINUOUS
 62
     7
 10
78.0
 20
-123.2999999999999
 30
0.0
 11
97.299999999999955
 21
-123.2999999999999
 31
0.0
  0
LINE
  5
F6
  8
DATA
  6
CONTINUOUS
 62
     7
 10
98.299999999999983
 20
-42.0
 30
0.0
 11
98.299999999999983
 21
-122.2999999999999
 31
0.0
  0
LINE
  5
F7
  8
DATA
  6
CONTINUOUS
 62
     7
 10
541.69999999999993
 20
-123.2999999999999
 30
0.0
 11
561.0
 21
-123.2999999999999
 31
0.0
  0
LINE
  5
F8
  8
DATA
  6
CONTINUOUS
 62
     7
 10
540.69999999999993
 20
-42.0
 30
0.0
 11
540.69999999999993
 21
-122.2999999999999
 31
0.0
  0
CIRCLE
  5
F9
  8
DATA
  6
CONTINUOUS
 62
     7
 10
319.5
 20
-118.5
 30
0.0
 40
3.0
  0
LINE
  5
FA
  8
DATA
  6
CONTINUOUS
 62
     7
 10
317.66152236891497
 20
-118.5
 30
0.0
 11
321.33847763109452
 21
-118.5
 31
0.0
  0
LINE
  5
FB
  8
DATA
  6
CONTINUOUS
 62
     7
 10
319.5
 20
-120.3384776310849
 30
0.0
 11
319.5
 21
-116.66152236891369
 31
0.0
  0
CIRCLE
  5
FC
  8
DATA
  6
CONTINUOUS
 62
     7
 10
514.5
 20
-118.5
 30
0.0
 40
3.0
  0
LINE
  5
FD
  8
DATA
  6
CONTINUOUS
 62
     7
 10
512.66152236891514
 20
-118.5
 30
0.0
 11
516.33847763109452
 21
-118.5
 31
0.0
  0
LINE
  5
FE
  8
DATA
  6
CONTINUOUS
 62
     7
 10
514.5
 20
-120.3384776310849
 30
0.0
 11
514.5
 21
-116.66152236891369
 31
0.0
  0
CIRCLE
  5
FF
  8
DATA
  6
CONTINUOUS
 62
     7
 10
124.5
 20
-118.5
 30
0.0
 40
3.0
  0
LINE
  5
100
  8
DATA
  6
CONTINUOUS
 62
     7
 10
122.661522368915
 20
-118.5
 30
0.0
 11
126.33847763109451
 21
-118.5
 31
0.0
  0
LINE
  5
101
  8
DATA
  6
CONTINUOUS
 62
     7
 10
124.5
 20
-120.3384776310849
 30
0.0
 11
124.5
 21
-116.66152236891369
 31
0.0
  0
LINE
  5
102
  8
DATA
  6
CONTINUOUS
 62
     7
 10
105.0
 20
-261.0
 30
0.0
 11
105.0
 21
-695.0
 31
0.0
  0
LINE
  5
103
  8
DATA
  6
CONTINUOUS
 62
     7
 10
130.0
 20
-261.0
 30
0.0
 11
130.0
 21
-695.0
 31
0.0
  0
LINE
  5
104
  8
DATA
  6
CONTINUOUS
 62
     7
 10
155.0
 20
-261.0
 30
0.0
 11
155.0
 21
-695.0
 31
0.0
  0
LINE
  5
105
  8
DATA
  6
CONTINUOUS
 62
     7
 10
180.0
 20
-261.0
 30
0.0
 11
180.0
 21
-695.0
 31
0.0
  0
LINE
  5
106
  8
DATA
  6
CONTINUOUS
 62
     7
 10
205.0
 20
-261.0
 30
0.0
 11
205.0
 21
-695.0
 31
0.0
  0
LINE
  5
107
  8
DATA
  6
CONTINUOUS
 62
     7
 10
230.0
 20
-261.0
 30
0.0
 11
230.0
 21
-695.0
 31
0.0
  0
LINE
  5
108
  8
DATA
  6
CONTINUOUS
 62
     7
 10
255.0
 20
-261.0
 30
0.0
 11
255.0
 21
-695.0
 31
0.0
  0
LINE
  5
109
  8
DATA
  6
CONTINUOUS
 62
     7
 10
280.0
 20
-261.0
 30
0.0
 11
280.0
 21
-695.0
 31
0.0
  0
LINE
  5
10A
  8
DATA
  6
CONTINUOUS
 62
     7
 10
305.0
 20
-261.0
 30
0.0
 11
305.0
 21
-695.0
 31
0.0
  0
LINE
  5
10B
  8
DATA
  6
CONTINUOUS
 62
     7
 10
330.0
 20
-261.0
 30
0.0
 11
330.0
 21
-695.0
 31
0.0
  0
LINE
  5
10C
  8
DATA
  6
CONTINUOUS
 62
     7
 10
355.0
 20
-261.0
 30
0.0
 11
355.0
 21
-695.0
 31
0.0
  0
LINE
  5
10D
  8
DATA
  6
CONTINUOUS
 62
     7
 10
380.0
 20
-261.0
 30
0.0
 11
380.0
 21
-695.0
 31
0.0
  0
LINE
  5
10E
  8
DATA
  6
CONTINUOUS
 62
     7
 10
405.0
 20
-261.0
 30
0.0
 11
405.0
 21
-695.0
 31
0.0
  0
LINE
  5
10F
  8
DATA
  6
CONTINUOUS
 62
     7
 10
430.0
 20
-261.0
 30
0.0
 11
430.0
 21
-695.0
 31
0.0
  0
LINE
  5
110
  8
DATA
  6
CONTINUOUS
 62
     7
 10
455.0
 20
-261.0
 30
0.0
 11
455.0
 21
-695.0
 31
0.0
  0
LINE
  5
111
  8
DATA
  6
CONTINUOUS
 62
     7
 10
534.0
 20
-695.0
 30
0.0
 11
534.0
 21
-261.0
 31
0.0
  0
LINE
  5
112
  8
DATA
  6
CONTINUOUS
 62
     7
 10
456.0
 20
-261.0
 30
0.0
 11
456.0
 21
-695.0
 31
0.0
  0
LINE
  5
113
  8
DATA
  6
CONTINUOUS
 62
     7
 10
494.80000000000001
 20
-695.0
 30
0.0
 11
494.80000000000001
 21
-261.0
 31
0.0
  0
LINE
  5
114
  8
DATA
  6
CONTINUOUS
 62
     7
 10
112.5
 20
-144.0
 30
0.0
 11
112.5
 21
-125.0
 31
0.0
  0
LINE
  5
115
  8
DATA
  6
CONTINUOUS
 62
     7
 10
122.5
 20
-125.0
 30
0.0
 11
122.5
 21
-144.0
 31
0.0
  0
ARC
  5
116
  8
DATA
  6
CONTINUOUS
 62
     7
 10
85.5
 20
-395.0
 30
0.0
 40
3.5
 50
90.0
 51
270.0
  0
ARC
  5
117
  8
DATA
  6
CONTINUOUS
 62
     7
 10
88.499999999999986
 20
-395.0
 30
0.0
 40
3.5
 50
270.0
 51
90.0
  0
LINE
  5
118
  8
DATA
  6
CONTINUOUS
 62
     7
 10
85.5
 20
-391.5
 30
0.0
 11
88.519999999999982
 21
-391.5
 31
0.0
  0
LINE
  5
119
  8
DATA
  6
CONTINUOUS
 62
     7
 10
85.5
 20
-398.5
 30
0.0
 11
88.499999999999986
 21
-398.5
 31
0.0
  0
ARC
  5
11A
  8
DATA
  6
CONTINUOUS
 62
     7
 10
85.5
 20
-292.5
 30
0.0
 40
3.5
 50
90.0
 51
270.0
  0
ARC
  5
11B
  8
DATA
  6
CONTINUOUS
 62
     7
 10
88.499999999999986
 20
-292.5
 30
0.0
 40
3.5
 50
270.0
 51
90.0
  0
LINE
  5
11C
  8
DATA
  6
CONTINUOUS
 62
     7
 10
85.5
 20
-289.0
 30
0.0
 11
88.519999999999982
 21
-289.0
 31
0.0
  0
LINE
  5
11D
  8
DATA
  6
CONTINUOUS
 62
     7
 10
85.5
 20
-296.0
 30
0.0
 11
88.499999999999986
 21
-296.0
 31
0.0
  0
ARC
  5
11E
  8
DATA
  6
CONTINUOUS
 62
     7
 10
85.5
 20
-561.0
 30
0.0
 40
3.5
 50
90.0
 51
270.0
  0
ARC
  5
11F
  8
DATA
  6
CONTINUOUS
 62
     7
 10
88.499999999999986
 20
-561.0
 30
0.0
 40
3.5
 50
270.0
 51
90.0
  0
LINE
  5
120
  8
DATA
  6
CONTINUOUS
 62
     7
 10
85.5
 20
-557.5
 30
0.0
 11
88.519999999999982
 21
-557.5
 31
0.0
  0
LINE
  5
121
  8
DATA
  6
CONTINUOUS
 62
     7
 10
85.5
 20
-564.5
 30
0.0
 11
88.499999999999986
 21
-564.5
 31
0.0
  0
ARC
  5
122
  8
DATA
  6
CONTINUOUS
 62
     7
 10
85.5
 20
-659.49999999999989
 30
0.0
 40
3.5
 50
90.0
 51
270.0
  0
ARC
  5
123
  8
DATA
  6
CONTINUOUS
 62
     7
 10
88.499999999999986
 20
-659.49999999999989
 30
0.0
 40
3.5
 50
270.0
 51
90.0
  0
LINE
  5
124
  8
DATA
  6
CONTINUOUS
 62
     7
 10
85.5
 20
-656.0
 30
0.0
 11
88.519999999999982
 21
-656.0
 31
0.0
  0
LINE
  5
125
  8
DATA
  6
CONTINUOUS
 62
     7
 10
85.5
 20
-663.0
 30
0.0
 11
88.499999999999986
 21
-663.0
 31
0.0
  0
ARC
  5
126
  8
DATA
  6
CONTINUOUS
 62
     7
 10
550.49999999999989
 20
-292.5
 30
0.0
 40
3.5
 50
90.0
 51
270.0
  0
ARC
  5
127
  8
DATA
  6
CONTINUOUS
 62
     7
 10
553.5
 20
-292.5
 30
0.0
 40
3.5
 50
270.0
 51
90.0
  0
LINE
  5
128
  8
DATA
  6
CONTINUOUS
 62
     7
 10
550.49999999999989
 20
-289.0
 30
0.0
 11
553.51999999999987
 21
-289.0
 31
0.0
  0
LINE
  5
129
  8
DATA
  6
CONTINUOUS
 62
     7
 10
550.49999999999989
 20
-296.0
 30
0.0
 11
553.5
 21
-296.0
 31
0.0
  0
ARC
  5
12A
  8
DATA
  6
CONTINUOUS
 62
     7
 10
550.49999999999989
 20
-395.0
 30
0.0
 40
3.5
 50
90.0
 51
270.0
  0
ARC
  5
12B
  8
DATA
  6
CONTINUOUS
 62
     7
 10
553.5
 20
-395.0
 30
0.0
 40
3.5
 50
270.0
 51
90.0
  0
LINE
  5
12C
  8
DATA
  6
CONTINUOUS
 62
     7
 10
550.49999999999989
 20
-391.5
 30
0.0
 11
553.51999999999987
 21
-391.5
 31
0.0
  0
LINE
  5
12D
  8
DATA
  6
CONTINUOUS
 62
     7
 10
550.49999999999989
 20
-398.5
 30
0.0
 11
553.5
 21
-398.5
 31
0.0
  0
ARC
  5
12E
  8
DATA
  6
CONTINUOUS
 62
     7
 10
550.49999999999989
 20
-561.0
 30
0.0
 40
3.5
 50
90.0
 51
270.0
  0
ARC
  5
12F
  8
DATA
  6
CONTINUOUS
 62
     7
 10
553.5
 20
-561.0
 30
0.0
 40
3.5
 50
270.0
 51
90.0
  0
LINE
  5
130
  8
DATA
  6
CONTINUOUS
 62
     7
 10
550.49999999999989
 20
-557.5
 30
0.0
 11
553.51999999999987
 21
-557.5
 31
0.0
  0
LINE
  5
131
  8
DATA
  6
CONTINUOUS
 62
     7
 10
550.49999999999989
 20
-564.5
 30
0.0
 11
553.5
 21
-564.5
 31
0.0
  0
ARC
  5
132
  8
DATA
  6
CONTINUOUS
 62
     7
 10
550.49999999999989
 20
-659.49999999999989
 30
0.0
 40
3.5
 50
90.0
 51
270.0
  0
ARC
  5
133
  8
DATA
  6
CONTINUOUS
 62
     7
 10
553.5
 20
-659.49999999999989
 30
0.0
 40
3.5
 50
270.0
 51
90.0
  0
LINE
  5
134
  8
DATA
  6
CONTINUOUS
 62
     7
 10
550.49999999999989
 20
-656.0
 30
0.0
 11
553.51999999999987
 21
-656.0
 31
0.0
  0
LINE
  5
135
  8
DATA
  6
CONTINUOUS
 62
     7
 10
550.49999999999989
 20
-663.0
 30
0.0
 11
553.5
 21
-663.0
 31
0.0
  0
ARC
  5
136
  8
DATA
  6
CONTINUOUS
 62
     7
 10
535.0749999999997
 20
-31.01145487875727
 30
0.0
 40
3.62500000000004
 50
316.39718102729688
 51
43.602818972702998
  0
ARC
  5
137
  8
DATA
  6
CONTINUOUS
 62
     7
 10
103.9249999999998
 20
-31.5
 30
0.0
 40
3.624999999999917
 50
136.39718102729509
 51
223.6028189727048
  0
LINE
  5
138
  8
DATA
  6
CONTINUOUS
 62
     7
 10
101.2999999999999
 20
15.0
 30
0.0
 11
537.69999999999993
 21
15.0
 31
0.0
  0
LINE
  5
139
  8
DATA
  6
CONTINUOUS
 62
     7
 10
100.0
 20
-43.0
 30
0.0
 11
539.0
 21
-43.0
 31
0.0
  0
LINE
  5
13A
  8
DATA
  6
CONTINUOUS
 62
     7
 10
101.2999999999999
 20
-43.0
 30
0.0
 11
101.2999999999999
 21
15.0
 31
0.0
  0
LINE
  5
13B
  8
DATA
  6
CONTINUOUS
 62
     7
 10
537.69999999999993
 20
-43.0
 30
0.0
 11
537.69999999999993
 21
15.0
 31
0.0
  0
LINE
  5
13C
  8
DATA
  6
CONTINUOUS
 62
     7
 10
106.2999999999999
 20
-112.0
 30
0.0
 11
106.2999999999999
 21
-43.0
 31
0.0
  0
LINE
  5
13D
  8
DATA
  6
CONTINUOUS
 62
     7
 10
532.69999999999993
 20
-43.0
 30
0.0
 11
532.69999999999993
 21
-112.0
 31
0.0
  0
LINE
  5
13E
  8
DATA
  6
CONTINUOUS
 62
     7
 10
98.299999999999983
 20
-55.799978700203717
 30
0.0
 11
98.299999999999983
 21
-50.799978700203717
 31
0.0
  0
ARC
  5
13F
  8
DATA
  6
CONTINUOUS
 62
     7
 10
100.9249999999998
 20
-53.299978700203717
 30
0.0
 40
3.624999999999917
 50
136.39718102729509
 51
223.6028189727048
  0
LINE
  5
140
  8
DATA
  6
CONTINUOUS
 62
     7
 10
540.69999999999993
 20
-50.797627799649938
 30
0.0
 11
540.69999999999993
 21
-55.797627799649938
 31
0.0
  0
ARC
  5
141
  8
DATA
  6
CONTINUOUS
 62
     7
 10
538.07499999999982
 20
-53.297627799649938
 30
0.0
 40
3.62500000000004
 50
316.39718102729688
 51
43.602818972702998
  0
LINE
  5
142
  8
DATA
  6
CONTINUOUS
 62
     7
 10
118.9999999999999
 20
-43.0
 30
0.0
 11
118.9999999999999
 21
-40.0
 31
0.0
  0
LINE
  5
143
  8
DATA
  6
CONTINUOUS
 62
     7
 10
129.9999999999998
 20
-40.0
 30
0.0
 11
129.9999999999998
 21
-43.0
 31
0.0
  0
LINE
  5
144
  8
DATA
  6
CONTINUOUS
 62
     7
 10
119.9999999999999
 20
-39.0
 30
0.0
 11
128.9999999999998
 21
-39.0
 31
0.0
  0
ARC
  5
145
  8
DATA
  6
CONTINUOUS
 62
     7
 10
119.9999999999999
 20
-40.0
 30
0.0
 40
1.0
 50
90.0
 51
180.0
  0
ARC
  5
146
  8
DATA
  6
CONTINUOUS
 62
     7
 10
128.9999999999998
 20
-40.0
 30
0.0
 40
1.0
 50
0.0
 51
90.0
  0
LINE
  5
147
  8
DATA
  6
CONTINUOUS
 62
     7
 10
509.0
 20
-43.0
 30
0.0
 11
509.0
 21
-40.0
 31
0.0
  0
LINE
  5
148
  8
DATA
  6
CONTINUOUS
 62
     7
 10
520.0
 20
-40.0
 30
0.0
 11
520.0
 21
-43.0
 31
0.0
  0
LINE
  5
149
  8
DATA
  6
CONTINUOUS
 62
     7
 10
510.0
 20
-39.0
 30
0.0
 11
519.0
 21
-39.0
 31
0.0
  0
ARC
  5
14A
  8
DATA
  6
CONTINUOUS
 62
     7
 10
510.0
 20
-40.0
 30
0.0
 40
1.0
 50
90.0
 51
180.0
  0
ARC
  5
14B
  8
DATA
  6
CONTINUOUS
 62
     7
 10
519.0
 20
-40.0
 30
0.0
 40
1.0
 50
0.0
 51
90.0
  0
ARC
  5
14C
  8
DATA
  6
CONTINUOUS
 62
     7
 10
540.0
 20
-124.0
 30
0.0
 40
1.0
 50
180.0
 51
270.0
  0
ARC
  5
14D
  8
DATA
  6
CONTINUOUS
 62
     7
 10
541.69999999999993
 20
-122.2999999999999
 30
0.0
 40
1.0
 50
180.0
 51
270.0
  0
ARC
  5
14E
  8
DATA
  6
CONTINUOUS
 62
     7
 10
97.299999999999955
 20
-122.2999999999999
 30
0.0
 40
1.0
 50
270.0
 51
0.0
  0
ARC
  5
14F
  8
DATA
  6
CONTINUOUS
 62
     7
 10
99.0
 20
-124.0
 30
0.0
 40
1.0
 50
270.0
 51
0.0
  0
LINE
  5
150
  8
DATA
  6
CONTINUOUS
 62
     7
 10
100.0
 20
-124.0
 30
0.0
 11
100.0
 21
-125.0
 31
0.0
  0
LINE
  5
151
  8
DATA
  6
CONTINUOUS
 62
     7
 10
539.0
 20
-124.0
 30
0.0
 11
539.0
 21
-125.0
 31
0.0
  0
LINE
  5
152
  8
DATA
  6
CONTINUOUS
 62
     7
 10
100.0
 20
-125.0
 30
0.0
 11
539.0
 21
-125.0
 31
0.0
  0
CIRCLE
  5
153
  8
DATA
  6
CONTINUOUS
 62
     7
 10
110.7999999999999
 20
-87.0
 30
0.0
 40
1.75
  0
CIRCLE
  5
154
  8
DATA
  6
CONTINUOUS
 62
     7
 10
528.19999999999993
 20
-87.0
 30
0.0
 40
1.75
  0
CIRCLE
  5
155
  8
DATA
  6
CONTINUOUS
 62
     7
 10
528.19999999999993
 20
-62.0
 30
0.0
 40
3.0
  0
LINE
  5
156
  8
DATA
  6
CONTINUOUS
 62
     7
 10
526.36152236891485
 20
-62.0
 30
0.0
 11
530.03847763109434
 21
-62.0
 31
0.0
  0
LINE
  5
157
  8
DATA
  6
CONTINUOUS
 62
     7
 10
528.19999999999993
 20
-63.83847763108497
 30
0.0
 11
528.19999999999993
 21
-60.161522368913673
 31
0.0
  0
CIRCLE
  5
158
  8
DATA
  6
CONTINUOUS
 62
     7
 10
110.7999999999999
 20
-62.0
 30
0.0
 40
3.0
  0
LINE
  5
159
  8
DATA
  6
CONTINUOUS
 62
     7
 10
108.961522368915
 20
-62.0
 30
0.0
 11
112.6384776310945
 21
-62.0
 31
0.0
  0
LINE
  5
15A
  8
DATA
  6
CONTINUOUS
 62
     7
 10
110.7999999999999
 20
-63.83847763108497
 30
0.0
 11
110.7999999999999
 21
-60.161522368913673
 31
0.0
  0
LINE
  5
15B
  8
DATA
  6
CONTINUOUS
 62
     7
 10
435.69999999999987
 20
-43.0
 30
0.0
 11
435.69999999999987
 21
-43.5
 31
0.0
  0
LINE
  5
15C
  8
DATA
  6
CONTINUOUS
 62
     7
 10
382.69999999999987
 20
-43.0
 30
0.0
 11
382.69999999999987
 21
-43.5
 31
0.0
  0
LINE
  5
15D
  8
DATA
  6
CONTINUOUS
 62
     7
 10
382.69999999999987
 20
-43.5
 30
0.0
 11
435.69999999999987
 21
-43.5
 31
0.0
  0
LINE
  5
15E
  8
DATA
  6
CONTINUOUS
 62
     7
 10
203.3000000000001
 20
-43.0
 30
0.0
 11
203.3000000000001
 21
-43.5
 31
0.0
  0
LINE
  5
15F
  8
DATA
  6
CONTINUOUS
 62
     7
 10
256.30000000000013
 20
-43.0
 30
0.0
 11
256.30000000000013
 21
-43.5
 31
0.0
  0
LINE
  5
160
  8
DATA
  6
CONTINUOUS
 62
     7
 10
256.30000000000013
 20
-43.5
 30
0.0
 11
203.3000000000001
 21
-43.5
 31
0.0
  0
LINE
  5
161
  8
DATA
  6
CONTINUOUS
 62
     7
 10
120.9499999999999
 20
20.0
 30
0.0
 11
120.9499999999999
 21
18.0
 31
0.0
  0
LINE
  5
162
  8
DATA
  6
CONTINUOUS
 62
     7
 10
111.65000000000001
 20
18.0
 30
0.0
 11
111.65000000000001
 21
20.0
 31
0.0
  0
LINE
  5
163
  8
DATA
  6
CONTINUOUS
 62
     7
 10
122.7999999999999
 20
18.0
 30
0.0
 11
122.7999999999999
 21
15.0
 31
0.0
  0
LINE
  5
164
  8
DATA
  6
CONTINUOUS
 62
     7
 10
109.7999999999999
 20
15.0
 30
0.0
 11
109.7999999999999
 21
18.0
 31
0.0
  0
LINE
  5
165
  8
DATA
  6
CONTINUOUS
 62
     7
 10
109.7999999999999
 20
18.0
 30
0.0
 11
122.7999999999999
 21
18.0
 31
0.0
  0
LINE
  5
166
  8
DATA
  6
CONTINUOUS
 62
     7
 10
111.65000000000001
 20
20.0
 30
0.0
 11
120.9499999999999
 21
20.0
 31
0.0
  0
LINE
  5
167
  8
DATA
  6
CONTINUOUS
 62
     7
 10
112.5499999999999
 20
15.0
 30
0.0
 11
112.5499999999999
 21
18.0
 31
0.0
  0
LINE
  5
168
  8
DATA
  6
CONTINUOUS
 62
     7
 10
120.0499999999999
 20
15.0
 30
0.0
 11
120.0499999999999
 21
18.0
 31
0.0
  0
LINE
  5
169
  8
DATA
  6
CONTINUOUS
 62
     7
 10
800.0
 20
-256.0
 30
0.0
 11
882.0
 21
-256.0
 31
0.0
  0
LINE
  5
16A
  8
DATA
  6
CONTINUOUS
 62
     7
 10
800.0
 20
-700.0
 30
0.0
 11
882.0
 21
-700.0
 31
0.0
  0
LINE
  5
16B
  8
DATA
  6
CONTINUOUS
 62
     7
 10
800.0
 20
-256.0
 30
0.0
 11
800.0
 21
-700.0
 31
0.0
  0
LINE
  5
16C
  8
DATA
  6
CONTINUOUS
 62
     7
 10
801.70000000000005
 20
-256.0
 30
0.0
 11
801.70000000000005
 21
-700.0
 31
0.0
  0
LINE
  5
16D
  8
DATA
  6
CONTINUOUS
 62
     7
 10
940.0
 20
-269.0
 30
0.0
 11
940.0
 21
-455.0
 31
0.0
  0
LINE
  5
16E
  8
DATA
  6
CONTINUOUS
 62
     7
 10
883.0
 20
-257.0
 30
0.0
 11
883.0
 21
-699.0
 31
0.0
  0
LINE
  5
16F
  8
DATA
  6
CONTINUOUS
 62
     7
 10
883.0
 20
-268.0
 30
0.0
 11
939.0
 21
-268.0
 31
0.0
  0
LINE
  5
170
  8
DATA
  6
CONTINUOUS
 62
     7
 10
883.0
 20
-456.0
 30
0.0
 11
939.0
 21
-456.0
 31
0.0
  0
LINE
  5
171
  8
DATA
  6
CONTINUOUS
 62
     7
 10
945.0
 20
-297.787527447201
 30
0.0
 11
943.0
 21
-297.787527447201
 31
0.0
  0
LINE
  5
172
  8
DATA
  6
CONTINUOUS
 62
     7
 10
943.0
 20
-288.48752744720122
 30
0.0
 11
945.0
 21
-288.48752744720122
 31
0.0
  0
LINE
  5
173
  8
DATA
  6
CONTINUOUS
 62
     7
 10
943.0
 20
-299.63752744720119
 30
0.0
 11
940.0
 21
-299.63752744720119
 31
0.0
  0
LINE
  5
174
  8
DATA
  6
CONTINUOUS
 62
     7
 10
940.0
 20
-286.63752744720119
 30
0.0
 11
943.0
 21
-286.63752744720119
 31
0.0
  0
LINE
  5
175
  8
DATA
  6
CONTINUOUS
 62
     7
 10
943.0
 20
-286.63752744720119
 30
0.0
 11
943.0
 21
-299.63752744720119
 31
0.0
  0
LINE
  5
176
  8
DATA
  6
CONTINUOUS
 62
     7
 10
945.0
 20
-288.48752744720122
 30
0.0
 11
945.0
 21
-297.787527447201
 31
0.0
  0
LINE
  5
177
  8
DATA
  6
CONTINUOUS
 62
     7
 10
940.0
 20
-289.38752744720119
 30
0.0
 11
943.0
 21
-289.38752744720119
 31
0.0
  0
LINE
  5
178
  8
DATA
  6
CONTINUOUS
 62
     7
 10
940.0
 20
-296.88752744720119
 30
0.0
 11
943.0
 21
-296.88752744720119
 31
0.0
  0
LINE
  5
179
  8
DATA
  6
CONTINUOUS
 62
     7
 10
112.5
 20
-128.1999999999999
 30
0.0
 11
122.5
 21
-128.1999999999999
 31
0.0
  0
LINE
  5
17A
  8
DATA
  6
CONTINUOUS
 62
     7
 10
781.0
 20
-281.89116570297853
 30
0.0
 11
800.0
 21
-281.89116570297853
 31
0.0
  0
LINE
  5
17B
  8
DATA
  6
CONTINUOUS
 62
     7
 10
800.0
 20
-291.89116570297853
 30
0.0
 11
781.0
 21
-291.89116570297853
 31
0.0
  0
LINE
  5
17C
  8
DATA
  6
CONTINUOUS
 62
     7
 10
796.81844473782405
 20
-281.89116570297853
 30
0.0
 11
796.81844473782405
 21
-291.89116570297853
 31
0.0
  0
LINE
  5
17D
  8
DATA
  6
CONTINUOUS
 62
     7
 10
112.5
 20
-144.0
 30
0.0
 11
122.5
 21
-144.0
 31
0.0
  0
LINE
  5
17E
  8
DATA
  6
CONTINUOUS
 62
     7
 10
781.0
 20
-291.89116570297853
 30
0.0
 11
781.0
 21
-281.89116570297853
 31
0.0
  0
CIRCLE
  5
17F
  8
DATA
  6
CONTINUOUS
 62
     7
 10
893.0
 20
-358.0
 30
0.0
 40
3.0
  0
LINE
  5
180
  8
DATA
  6
CONTINUOUS
 62
     7
 10
891.16152236891503
 20
-358.0
 30
0.0
 11
894.83847763109452
 21
-358.0
 31
0.0
  0
LINE
  5
181
  8
DATA
  6
CONTINUOUS
 62
     7
 10
893.0
 20
-359.83847763108491
 30
0.0
 11
893.0
 21
-356.16152236891372
 31
0.0
  0
CIRCLE
  5
182
  8
DATA
  6
CONTINUOUS
 62
     7
 10
893.0
 20
-418.0
 30
0.0
 40
3.0
  0
LINE
  5
183
  8
DATA
  6
CONTINUOUS
 62
     7
 10
891.16152236891503
 20
-418.0
 30
0.0
 11
894.83847763109452
 21
-418.0
 31
0.0
  0
LINE
  5
184
  8
DATA
  6
CONTINUOUS
 62
     7
 10
893.0
 20
-419.83847763108491
 30
0.0
 11
893.0
 21
-416.16152236891361
 31
0.0
  0
CIRCLE
  5
185
  8
DATA
  6
CONTINUOUS
 62
     7
 10
871.70000000000005
 20
-290.0
 30
0.0
 40
3.0
  0
LINE
  5
186
  8
DATA
  6
CONTINUOUS
 62
     7
 10
869.86152236891485
 20
-290.0
 30
0.0
 11
873.53847763109445
 21
-290.0
 31
0.0
  0
LINE
  5
187
  8
DATA
  6
CONTINUOUS
 62
     7
 10
871.70000000000005
 20
-291.83847763108491
 30
0.0
 11
871.70000000000005
 21
-288.16152236891361
 31
0.0
  0
CIRCLE
  5
188
  8
DATA
  6
CONTINUOUS
 62
     7
 10
808.69999999999993
 20
-290.0
 30
0.0
 40
3.0
  0
LINE
  5
189
  8
DATA
  6
CONTINUOUS
 62
     7
 10
806.86152236891496
 20
-290.0
 30
0.0
 11
810.53847763109434
 21
-290.0
 31
0.0
  0
LINE
  5
18A
  8
DATA
  6
CONTINUOUS
 62
     7
 10
808.69999999999993
 20
-291.83847763108491
 30
0.0
 11
808.69999999999993
 21
-288.16152236891361
 31
0.0
  0
CIRCLE
  5
18B
  8
DATA
  6
CONTINUOUS
 62
     7
 10
808.69999999999993
 20
-666.0
 30
0.0
 40
3.0
  0
LINE
  5
18C
  8
DATA
  6
CONTINUOUS
 62
     7
 10
806.86152236891496
 20
-666.0
 30
0.0
 11
810.53847763109434
 21
-666.0
 31
0.0
  0
LINE
  5
18D
  8
DATA
  6
CONTINUOUS
 62
     7
 10
808.69999999999993
 20
-667.83847763108486
 30
0.0
 11
808.69999999999993
 21
-664.16152236891355
 31
0.0
  0
CIRCLE
  5
18E
  8
DATA
  6
CONTINUOUS
 62
     7
 10
871.70000000000005
 20
-666.0
 30
0.0
 40
3.0
  0
LINE
  5
18F
  8
DATA
  6
CONTINUOUS
 62
     7
 10
869.86152236891485
 20
-666.0
 30
0.0
 11
873.53847763109445
 21
-666.0
 31
0.0
  0
LINE
  5
190
  8
DATA
  6
CONTINUOUS
 62
     7
 10
871.70000000000005
 20
-667.83847763108486
 30
0.0
 11
871.70000000000005
 21
-664.16152236891355
 31
0.0
  0
LINE
  5
191
  8
DATA
  6
CONTINUOUS
 62
     7
 10
883.00000006593871
 20
-256.71944628565478
 30
0.0
 11
886.00000006593859
 21
-256.71944628565478
 31
0.0
  0
LINE
  5
192
  8
DATA
  6
CONTINUOUS
 62
     7
 10
886.00000006593859
 20
-267.71944628565478
 30
0.0
 11
883.00000006593871
 21
-267.71944628565478
 31
0.0
  0
LINE
  5
193
  8
DATA
  6
CONTINUOUS
 62
     7
 10
887.00000006593859
 20
-257.7194462856549
 30
0.0
 11
887.00000006593859
 21
-266.71944628565478
 31
0.0
  0
ARC
  5
194
  8
DATA
  6
CONTINUOUS
 62
     7
 10
886.00000006593859
 20
-257.7194462856549
 30
0.0
 40
1.0
 50
0.0
 51
90.0
  0
ARC
  5
195
  8
DATA
  6
CONTINUOUS
 62
     7
 10
886.00000006593859
 20
-266.71944628565478
 30
0.0
 40
1.0
 50
270.0
 51
0.0
  0
ARC
  5
196
  8
DATA
  6
CONTINUOUS
 62
     7
 10
882.0
 20
-257.0
 30
0.0
 40
1.0
 50
0.0
 51
90.0
  0
ARC
  5
197
  8
DATA
  6
CONTINUOUS
 62
     7
 10
939.0
 20
-269.0
 30
0.0
 40
1.0
 50
0.0
 51
90.0
  0
ARC
  5
198
  8
DATA
  6
CONTINUOUS
 62
     7
 10
939.0
 20
-455.0
 30
0.0
 40
1.0
 50
270.0
 51
0.0
  0
ARC
  5
199
  8
DATA
  6
CONTINUOUS
 62
     7
 10
882.0
 20
-699.0
 30
0.0
 40
1.0
 50
270.0
 51
0.0
  0
LINE
  5
19A
  8
DATA
  6
CONTINUOUS
 62
     7
 10
883.0
 20
-680.83775296691726
 30
0.0
 11
888.0
 21
-680.83775296691726
 31
0.0
  0
LINE
  5
19B
  8
DATA
  6
CONTINUOUS
 62
     7
 10
888.0
 20
-698.83775296691738
 30
0.0
 11
883.0
 21
-698.83775296691738
 31
0.0
  0
LINE
  5
19C
  8
DATA
  6
CONTINUOUS
 62
     7
 10
891.0
 20
-683.83775296691726
 30
0.0
 11
891.0
 21
-695.83775296691726
 31
0.0
  0
ARC
  5
19D
  8
DATA
  6
CONTINUOUS
 62
     7
 10
888.0
 20
-683.83775296691726
 30
0.0
 40
3.0
 50
0.0
 51
90.0
  0
ARC
  5
19E
  8
DATA
  6
CONTINUOUS
 62
     7
 10
888.0
 20
-695.83775296691726
 30
0.0
 40
3.0
 50
270.0
 51
0.0
  0
ARC
  5
19F
  8
DATA
  6
CONTINUOUS
 62
     7
 10
880.375
 20
-665.02977593867945
 30
0.0
 40
3.62500000000004
 50
316.39718102729688
 51
43.602818972702998
  0
ARC
  5
1A0
  8
DATA
  6
CONTINUOUS
 62
     7
 10
880.375
 20
-560.02558103053195
 30
0.0
 40
3.62500000000004
 50
316.39718102729688
 51
43.602818972702998
  0
LINE
  5
1A1
  8
DATA
  6
CONTINUOUS
 62
     7
 10
105.0
 20
851.799285599575
 30
0.0
 11
105.0
 21
430.0
 31
0.0
  0
LINE
  5
1A2
  8
DATA
  6
CONTINUOUS
 62
     7
 10
130.0
 20
851.799285599575
 30
0.0
 11
130.0
 21
430.0
 31
0.0
  0
LINE
  5
1A3
  8
DATA
  6
CONTINUOUS
 62
     7
 10
155.0
 20
851.799285599575
 30
0.0
 11
155.0
 21
430.0
 31
0.0
  0
LINE
  5
1A4
  8
DATA
  6
CONTINUOUS
 62
     7
 10
180.0
 20
851.799285599575
 30
0.0
 11
180.0
 21
430.0
 31
0.0
  0
LINE
  5
1A5
  8
DATA
  6
CONTINUOUS
 62
     7
 10
205.0
 20
851.799285599575
 30
0.0
 11
205.0
 21
430.0
 31
0.0
  0
LINE
  5
1A6
  8
DATA
  6
CONTINUOUS
 62
     7
 10
230.0
 20
851.799285599575
 30
0.0
 11
230.0
 21
430.0
 31
0.0
  0
LINE
  5
1A7
  8
DATA
  6
CONTINUOUS
 62
     7
 10
255.0
 20
851.799285599575
 30
0.0
 11
255.0
 21
430.0
 31
0.0
  0
LINE
  5
1A8
  8
DATA
  6
CONTINUOUS
 62
     7
 10
280.0
 20
851.799285599575
 30
0.0
 11
280.0
 21
430.0
 31
0.0
  0
LINE
  5
1A9
  8
DATA
  6
CONTINUOUS
 62
     7
 10
305.0
 20
851.799285599575
 30
0.0
 11
305.0
 21
430.0
 31
0.0
  0
LINE
  5
1AA
  8
DATA
  6
CONTINUOUS
 62
     7
 10
330.0
 20
851.799285599575
 30
0.0
 11
330.0
 21
430.0
 31
0.0
  0
LINE
  5
1AB
  8
DATA
  6
CONTINUOUS
 62
     7
 10
355.0
 20
851.799285599575
 30
0.0
 11
355.0
 21
430.0
 31
0.0
  0
LINE
  5
1AC
  8
DATA
  6
CONTINUOUS
 62
     7
 10
380.0
 20
851.799285599575
 30
0.0
 11
380.0
 21
430.0
 31
0.0
  0
LINE
  5
1AD
  8
DATA
  6
CONTINUOUS
 62
     7
 10
405.0
 20
851.799285599575
 30
0.0
 11
405.0
 21
430.0
 31
0.0
  0
LINE
  5
1AE
  8
DATA
  6
CONTINUOUS
 62
     7
 10
430.0
 20
851.799285599575
 30
0.0
 11
430.0
 21
430.0
 31
0.0
  0
LINE
  5
1AF
  8
DATA
  6
CONTINUOUS
 62
     7
 10
455.0
 20
851.799285599575
 30
0.0
 11
455.0
 21
430.0
 31
0.0
  0
LINE
  5
1B0
  8
DATA
  6
CONTINUOUS
 62
     7
 10
456.0
 20
851.799285599575
 30
0.0
 11
456.0
 21
430.0
 31
0.0
  0
LINE
  5
1B1
  8
DATA
  6
CONTINUOUS
 62
     7
 10
494.80000000000001
 20
430.0
 30
0.0
 11
494.80000000000001
 21
851.79928559957477
 31
0.0
  0
LINE
  5
1B2
  8
DATA
  6
CONTINUOUS
 62
     7
 10
534.0
 20
430.0
 30
0.0
 11
534.0
 21
851.79928559957477
 31
0.0
  0
LINE
  5
1B3
  8
DATA
  6
CONTINUOUS
 62
     7
 10
800.00000000024443
 20
854.79928559957489
 30
0.0
 11
879.37734553897872
 21
875.37201063113912
 31
0.0
  0
LINE
  5
1B4
  8
DATA
  6
CONTINUOUS
 62
     7
 10
911.39377943944521
 20
424.999999999598
 30
0.0
 11
990.77112497817961
 21
445.57272503116189
 31
0.0
  0
LINE
  5
1B5
  8
DATA
  6
CONTINUOUS
 62
     7
 10
800.00000000024443
 20
854.79928559957489
 30
0.0
 11
911.39377943944521
 21
424.999999999598
 31
0.0
  0
LINE
  5
1B6
  8
DATA
  6
CONTINUOUS
 62
     7
 10
801.64562789555964
 20
855.22579331364375
 30
0.0
 11
913.0394073347602
 21
425.42650771366698
 31
0.0
  0
LINE
  5
1B7
  8
DATA
  6
CONTINUOUS
 62
     7
 10
880.59624883861682
 20
874.65488111275874
 30
0.0
 11
991.48825449655965
 21
446.79162833079982
 31
0.0
  0
LINE
  5
1B8
  8
DATA
  6
CONTINUOUS
 62
     7
 10
788.10344228705026
 20
824.96936142877405
 30
0.0
 11
806.49575405822065
 21
829.73621235072176
 31
0.0
  0
LINE
  5
1B9
  8
DATA
  6
CONTINUOUS
 62
     7
 10
809.00462296450871
 20
820.05604826063222
 30
0.0
 11
790.61231119333843
 21
815.28919733868452
 31
0.0
  0
LINE
  5
1BA
  8
DATA
  6
CONTINUOUS
 62
     7
 10
803.41595635826559
 20
828.93800184363056
 30
0.0
 11
805.92482526455365
 21
819.25783775354114
 31
0.0
  0
LINE
  5
1BB
  8
DATA
  6
CONTINUOUS
 62
     7
 10
790.61231119333843
 20
815.28919733868452
 30
0.0
 11
788.10344228705026
 21
824.96936142877405
 31
0.0
  0
CIRCLE
  5
1BC
  8
DATA
  6
CONTINUOUS
 62
     7
 10
877.9369308075668
 20
839.87531775135756
 30
0.0
 40
3.000000000000016
  0
LINE
  5
1BD
  8
DATA
  6
CONTINUOUS
 62
     7
 10
876.15725429308054
 20
839.4140678150037
 30
0.0
 11
879.71660732206226
 21
840.33656768771345
 31
0.0
  0
LINE
  5
1BE
  8
DATA
  6
CONTINUOUS
 62
     7
 10
878.39818074392042
 20
838.09564123687119
 30
0.0
 11
877.47568087121294
 21
841.65499426584495
 31
0.0
  0
CIRCLE
  5
1BF
  8
DATA
  6
CONTINUOUS
 62
     7
 10
816.95189704000245
 20
824.06944364174115
 30
0.0
 40
3.0000000000000182
  0
LINE
  5
1C0
  8
DATA
  6
CONTINUOUS
 62
     7
 10
815.17222052551654
 20
823.60819370538741
 30
0.0
 11
818.73157355449769
 21
824.53069357809704
 31
0.0
  0
LINE
  5
1C1
  8
DATA
  6
CONTINUOUS
 62
     7
 10
817.41314697635619
 20
822.28976712725478
 30
0.0
 11
816.4906471036486
 21
825.84912015622865
 31
0.0
  0
CIRCLE
  5
1C2
  8
DATA
  6
CONTINUOUS
 62
     7
 10
911.28536791644285
 20
460.09527385437337
 30
0.0
 40
2.999999999999984
  0
LINE
  5
1C3
  8
DATA
  6
CONTINUOUS
 62
     7
 10
909.50569140195648
 20
459.63402391801969
 30
0.0
 11
913.06504443093809
 21
460.55652379072922
 31
0.0
  0
LINE
  5
1C4
  8
DATA
  6
CONTINUOUS
 62
     7
 10
911.74661785279636
 20
458.31559733988718
 30
0.0
 11
910.824117980089
 21
461.87495036886088
 31
0.0
  0
CIRCLE
  5
1C5
  8
DATA
  6
CONTINUOUS
 62
     7
 10
972.27040168400686
 20
475.90114796398967
 30
0.0
 40
3.0000000000000382
  0
LINE
  5
1C6
  8
DATA
  6
CONTINUOUS
 62
     7
 10
970.49072516952072
 20
475.43989802763599
 30
0.0
 11
974.05007819850232
 21
476.36239790034563
 31
0.0
  0
LINE
  5
1C7
  8
DATA
  6
CONTINUOUS
 62
     7
 10
972.73165162036059
 20
474.12147144950342
 30
0.0
 11
971.80915174765323
 21
477.68082447847712
 31
0.0
  0
LINE
  5
1C8
  8
DATA
  6
CONTINUOUS
 62
     7
 10
880.52586165339994
 20
874.92646172839659
 30
0.0
 11
883.42991088042697
 21
875.67912240028295
 31
0.0
  0
LINE
  5
1C9
  8
DATA
  6
CONTINUOUS
 62
     7
 10
886.18966667734389
 20
865.03094190118452
 30
0.0
 11
883.28561745031698
 21
864.27828122929793
 31
0.0
  0
LINE
  5
1CA
  8
DATA
  6
CONTINUOUS
 62
     7
 10
884.64881418006462
 20
874.96199288190292
 30
0.0
 11
886.90679619572404
 21
866.24984520082228
 31
0.0
  0
ARC
  5
1CB
  8
DATA
  6
CONTINUOUS
 62
     7
 10
883.68079777105561
 20
874.71110599127383
 30
0.0
 40
0.9999999999999968
 50
14.53000000000028
 51
104.52999999999869
  0
ARC
  5
1CC
  8
DATA
  6
CONTINUOUS
 62
     7
 10
885.93877978671503
 20
865.99895831019364
 30
0.0
 40
0.9999999999999896
 50
284.52999999999872
 51
14.529999999998671
  0
ARC
  5
1CD
  8
DATA
  6
CONTINUOUS
 62
     7
 10
879.62823242960769
 20
874.40399422213
 30
0.0
 40
0.9999999999999968
 50
14.53000000000028
 51
104.53000000000181
  0
ARC
  5
1CE
  8
DATA
  6
CONTINUOUS
 62
     7
 10
990.52023808755075
 20
446.54074144017108
 30
0.0
 40
1.0000000000000591
 50
284.53000000000111
 51
14.529999999995541
  0
LINE
  5
1CF
  8
DATA
  6
CONTINUOUS
 62
     7
 10
986.93158481159674
 20
464.37298148329802
 30
0.0
 11
991.77166685664156
 21
465.62741593644222
 31
0.0
  0
LINE
  5
1D0
  8
DATA
  6
CONTINUOUS
 62
     7
 10
996.28763088796052
 20
448.20312057428089
 30
0.0
 11
991.44754884291569
 21
446.9486861211368
 31
0.0
  0
LINE
  5
1D1
  8
DATA
  6
CONTINUOUS
 62
     7
 10
995.42837675555495
 20
463.47602738130172
 30
0.0
 11
998.43901944310073
 21
451.85983047319428
 31
0.0
  0
ARC
  5
1D2
  8
DATA
  6
CONTINUOUS
 62
     7
 10
992.52432752852803
 20
462.72336670941519
 30
0.0
 40
2.999999999999984
 50
14.529999999999751
 51
104.5300000000005
  0
ARC
  5
1D3
  8
DATA
  6
CONTINUOUS
 62
     7
 10
995.53497021607404
 20
451.10716980130792
 30
0.0
 40
3.0000000000000382
 50
284.5299999999994
 51
14.52999999999974
  0
ARC
  5
1D4
  8
DATA
  6
CONTINUOUS
 62
     7
 10
980.4245275342015
 20
479.01678455196821
 30
0.0
 40
3.6250000000000488
 50
330.92718102729708
 51
58.132818972702971
  0
ARC
  5
1D5
  8
DATA
  6
CONTINUOUS
 62
     7
 10
954.08035157071299
 20
580.66256823782953
 30
0.0
 40
3.625000000000036
 50
330.92718102729742
 51
58.132818972702857
  0
LINE
  5
1D6
  8
DATA
  6
CONTINUOUS
 62
     7
 10
997.00112161362847
 20
905.85730320340326
 30
0.0
 11
983.0496487408659
 21
959.68735640717045
 31
0.0
  0
LINE
  5
1D7
  8
DATA
  6
CONTINUOUS
 62
     7
 10
825.64544349616176
 20
930.38201956375383
 30
0.0
 11
826.14721727741937
 21
928.44598674573592
 31
0.0
  0
LINE
  5
1D8
  8
DATA
  6
CONTINUOUS
 62
     7
 10
817.1446646736365
 20
926.11273866288741
 30
0.0
 11
816.64289089237866
 21
928.04877148090566
 31
0.0
  0
LINE
  5
1D9
  8
DATA
  6
CONTINUOUS
 62
     7
 10
827.93804763408627
 20
928.91012749339916
 30
0.0
 11
828.69070830597275
 21
926.0060782663719
 31
0.0
  0
LINE
  5
1DA
  8
DATA
  6
CONTINUOUS
 62
     7
 10
816.10649498885618
 20
922.74454868819737
 30
0.0
 11
815.3538343169696
 21
925.64859791522429
 31
0.0
  0
LINE
  5
1DB
  8
DATA
  6
CONTINUOUS
 62
     7
 10
815.3538343169696
 20
925.64859791522429
 30
0.0
 11
827.93804763408627
 21
928.91012749339916
 31
0.0
  0
LINE
  5
1DC
  8
DATA
  6
CONTINUOUS
 62
     7
 10
816.64289089237866
 20
928.04877148090566
 30
0.0
 11
825.64544349616176
 21
930.38201956375383
 31
0.0
  0
LINE
  5
1DD
  8
DATA
  6
CONTINUOUS
 62
     7
 10
818.76854011363082
 20
923.43448763742686
 30
0.0
 11
818.01587944174435
 21
926.33853686445343
 31
0.0
  0
LINE
  5
1DE
  8
DATA
  6
CONTINUOUS
 62
     7
 10
826.02866318119811
 20
925.31613931714276
 30
0.0
 11
825.27600250931175
 21
928.22018854417001
 31
0.0
  0
CIRCLE
  5
1DF
  8
DATA
  6
CONTINUOUS
 62
     7
 10
891.1437163490267
 20
888.75197822587381
 30
0.0
 40
3.0000000000000111
  0
LINE
  5
1E0
  8
DATA
  6
CONTINUOUS
 62
     7
 10
891.6049662853801
 20
886.97230171138779
 30
0.0
 11
890.68246641267069
 21
890.53165474036962
 31
0.0
  0
LINE
  5
1E1
  8
DATA
  6
CONTINUOUS
 62
     7
 10
892.92339286351262
 20
889.21322816222744
 30
0.0
 11
889.36403983453908
 21
888.29072828951996
 31
0.0
  0
CIRCLE
  5
1E2
  8
DATA
  6
CONTINUOUS
 62
     7
 10
949.22470088956402
 20
903.80519166360352
 30
0.0
 40
3.0000000000000111
  0
LINE
  5
1E3
  8
DATA
  6
CONTINUOUS
 62
     7
 10
949.68595082591753
 20
902.0255151491175
 30
0.0
 11
948.76345095320801
 21
905.5848681780991
 31
0.0
  0
LINE
  5
1E4
  8
DATA
  6
CONTINUOUS
 62
     7
 10
951.00437740404982
 20
904.26644159995715
 30
0.0
 11
947.4450243750764
 21
903.34394172725001
 31
0.0
  0
ARC
  5
1E5
  8
DATA
  6
CONTINUOUS
 62
     7
 10
799.28396589624845
 20
917.35150785957933
 30
0.0
 40
0.9999999999999968
 50
104.5300000000003
 51
194.52999999999869
  0
ARC
  5
1E6
  8
DATA
  6
CONTINUOUS
 62
     7
 10
980.8950179719136
 20
964.01646951654175
 30
0.0
 40
0.9999999999999968
 50
14.53000000000028
 51
104.52999999999869
  0
LINE
  5
1E7
  8
DATA
  6
CONTINUOUS
 62
     7
 10
101.3000000000001
 20
965.0
 30
0.0
 11
537.69999999999993
 21
965.0
 31
0.0
  0
LINE
  5
1E8
  8
DATA
  6
CONTINUOUS
 62
     7
 10
798.31594948723955
 20
917.10062096895081
 30
0.0
 11
813.55261672254301
 21
858.31180236860655
 31
0.0
  0
LINE
  5
1E9
  8
DATA
  6
CONTINUOUS
 62
     7
 10
983.0496487408659
 20
959.68735640717045
 30
0.0
 11
981.86303438092284
 21
964.26735640717061
 31
0.0
  0
LINE
  5
1EA
  8
DATA
  6
CONTINUOUS
 62
     7
 10
100.0
 20
425.0
 30
0.0
 11
100.0
 21
858.31180236860655
 31
0.0
  0
LINE
  5
1EB
  8
DATA
  6
CONTINUOUS
 62
     7
 10
539.0
 20
425.0
 30
0.0
 11
539.0
 21
858.31180236860655
 31
0.0
  0
LINE
  5
1EC
  8
DATA
  6
CONTINUOUS
 62
     7
 10
537.69999999999993
 20
918.31952426858845
 30
0.0
 11
101.3000000000001
 21
918.31952426858845
 31
0.0
  0
LINE
  5
1ED
  8
DATA
  6
CONTINUOUS
 62
     7
 10
539.0
 20
854.79928559957489
 30
0.0
 11
100.0
 21
854.79928559957489
 31
0.0
  0
POLYLINE
  5
1EE
  8
DATA
  6
CONTINUOUS
 62
     7
 66
     1
 10
0.0
 20
0.0
 30
0.0
 70
   129
  0
VERTEX
  5
5D2
  8
DATA
  6
CONTINUOUS
 62
     7
 10
115.3056977254853
 20
824.32091339113902
 30
0.0
  0
VERTEX
  5
5D3
  8
DATA
  6
CONTINUOUS
 62
     7
 10
115.3365542214454
 20
824.34101907980573
 30
0.0
  0
VERTEX
  5
5D4
  8
DATA
  6
CONTINUOUS
 62
     7
 10
115.3674852135657
 20
824.36080814345439
 30
0.0
  0
VERTEX
  5
5D5
  8
DATA
  6
CONTINUOUS
 62
     7
 10
115.3984907018459
 20
824.38028058208454
 30
0.0
  0
VERTEX
  5
5D6
  8
DATA
  6
CONTINUOUS
 62
     7
 10
115.4295706862862
 20
824.3994363956964
 30
0.0
  0
VERTEX
  5
5D7
  8
DATA
  6
CONTINUOUS
 62
     7
 10
115.46072516688641
 20
824.41827558428974
 30
0.0
  0
VERTEX
  5
5D8
  8
DATA
  6
CONTINUOUS
 62
     7
 10
115.49195414364659
 20
824.43679814786458
 30
0.0
  0
VERTEX
  5
5D9
  8
DATA
  6
CONTINUOUS
 62
     7
 10
115.5232576165667
 20
824.45500408642147
 30
0.0
  0
VERTEX
  5
5DA
  8
DATA
  6
CONTINUOUS
 62
     7
 10
115.55463558564701
 20
824.47289339995962
 30
0.0
  0
VERTEX
  5
5DB
  8
DATA
  6
CONTINUOUS
 62
     7
 10
115.5860880508871
 20
824.49046608847948
 30
0.0
  0
VERTEX
  5
5DC
  8
DATA
  6
CONTINUOUS
 62
     7
 10
115.6176150122874
 20
824.50772215198117
 30
0.0
  0
VERTEX
  5
5DD
  8
DATA
  6
CONTINUOUS
 62
     7
 10
115.6492164698475
 20
824.52466159046401
 30
0.0
  0
VERTEX
  5
5DE
  8
DATA
  6
CONTINUOUS
 62
     7
 10
115.6808924235677
 20
824.5412844039289
 30
0.0
  0
VERTEX
  5
5DF
  8
DATA
  6
CONTINUOUS
 62
     7
 10
115.71264287344771
 20
824.55759059237539
 30
0.0
  0
VERTEX
  5
5E0
  8
DATA
  6
CONTINUOUS
 62
     7
 10
115.74446781948799
 20
824.57358015580348
 30
0.0
  0
VERTEX
  5
5E1
  8
DATA
  6
CONTINUOUS
 62
     7
 10
115.77636726168809
 20
824.58925309421284
 30
0.0
  0
VERTEX
  5
5E2
  8
DATA
  6
CONTINUOUS
 62
     7
 10
115.8083412000483
 20
824.60460940760436
 30
0.0
  0
VERTEX
  5
5E3
  8
DATA
  6
CONTINUOUS
 62
     7
 10
115.8403896345683
 20
824.61964909597725
 30
0.0
  0
VERTEX
  5
5E4
  8
DATA
  6
CONTINUOUS
 62
     7
 10
115.8725125652485
 20
824.63437215933163
 30
0.0
  0
VERTEX
  5
5E5
  8
DATA
  6
CONTINUOUS
 62
     7
 10
115.9047099920885
 20
824.64877859766796
 30
0.0
  0
VERTEX
  5
5E6
  8
DATA
  6
CONTINUOUS
 62
     7
 10
115.93698191508859
 20
824.66286841098565
 30
0.0
  0
VERTEX
  5
5E7
  8
DATA
  6
CONTINUOUS
 62
     7
 10
115.9693283342488
 20
824.67664159928495
 30
0.0
  0
VERTEX
  5
5E8
  8
DATA
  6
CONTINUOUS
 62
     7
 10
116.0017492495687
 20
824.69009816256585
 30
0.0
  0
VERTEX
  5
5E9
  8
DATA
  6
CONTINUOUS
 62
     7
 10
116.0342446610489
 20
824.70323810082846
 30
0.0
  0
VERTEX
  5
5EA
  8
DATA
  6
CONTINUOUS
 62
     7
 10
116.066814568689
 20
824.71606141407278
 30
0.0
  0
VERTEX
  5
5EB
  8
DATA
  6
CONTINUOUS
 62
     7
 10
116.0994589724889
 20
824.72856810229871
 30
0.0
  0
VERTEX
  5
5EC
  8
DATA
  6
CONTINUOUS
 62
     7
 10
116.13217787244911
 20
824.74075816550624
 30
0.0
  0
VERTEX
  5
5ED
  8
DATA
  6
CONTINUOUS
 62
     7
 10
116.1649712685691
 20
824.75263160369525
 30
0.0
  0
VERTEX
  5
5EE
  8
DATA
  6
CONTINUOUS
 62
     7
 10
116.1978391608492
 20
824.76418841686609
 30
0.0
  0
VERTEX
  5
5EF
  8
DATA
  6
CONTINUOUS
 62
     7
 10
116.23078154928901
 20
824.77542860501831
 30
0.0
  0
VERTEX
  5
5F0
  8
DATA
  6
CONTINUOUS
 62
     7
 10
116.26379843388921
 20
824.78635216815235
 30
0.0
  0
VERTEX
  5
5F1
  8
DATA
  6
CONTINUOUS
 62
     7
 10
116.29688981464911
 20
824.79695910626799
 30
0.0
  0
VERTEX
  5
5F2
  8
DATA
  6
CONTINUOUS
 62
     7
 10
116.3300556915692
 20
824.80724941936512
 30
0.0
  0
VERTEX
  5
5F3
  8
DATA
  6
CONTINUOUS
 62
     7
 10
116.36329606464911
 20
824.81722310744431
 30
0.0
  0
VERTEX
  5
5F4
  8
DATA
  6
CONTINUOUS
 62
     7
 10
116.39661093388909
 20
824.82688017050464
 30
0.0
  0
VERTEX
  5
5F5
  8
DATA
  6
CONTINUOUS
 62
     7
 10
116.43000029928901
 20
824.83622060854645
 30
0.0
  0
VERTEX
  5
5F6
  8
DATA
  6
CONTINUOUS
 62
     7
 10
116.4634641608492
 20
824.84524442157044
 30
0.0
  0
VERTEX
  5
5F7
  8
DATA
  6
CONTINUOUS
 62
     7
 10
116.4970025185691
 20
824.85395160957569
 30
0.0
  0
VERTEX
  5
5F8
  8
DATA
  6
CONTINUOUS
 62
     7
 10
116.53061537244911
 20
824.86234217256265
 30
0.0
  0
VERTEX
  5
5F9
  8
DATA
  6
CONTINUOUS
 62
     7
 10
116.5643027224889
 20
824.87041611053144
 30
0.0
  0
VERTEX
  5
5FA
  8
DATA
  6
CONTINUOUS
 62
     7
 10
116.5980645686889
 20
824.8781734234816
 30
0.0
  0
VERTEX
  5
5FB
  8
DATA
  6
CONTINUOUS
 62
     7
 10
116.6319009110488
 20
824.88561411141347
 30
0.0
  0
VERTEX
  5
5FC
  8
DATA
  6
CONTINUOUS
 62
     7
 10
116.6658117495687
 20
824.89273817432695
 30
0.0
  0
VERTEX
  5
5FD
  8
DATA
  6
CONTINUOUS
 62
     7
 10
116.6997970842488
 20
824.89954561222214
 30
0.0
  0
VERTEX
  5
5FE
  8
DATA
  6
CONTINUOUS
 62
     7
 10
116.73385691508859
 20
824.90603642509859
 30
0.0
  0
VERTEX
  5
5FF
  8
DATA
  6
CONTINUOUS
 62
     7
 10
116.7679912420885
 20
824.91221061295698
 30
0.0
  0
VERTEX
  5
600
  8
DATA
  6
CONTINUOUS
 62
     7
 10
116.8022000652485
 20
824.91806817579709
 30
0.0
  0
VERTEX
  5
601
  8
DATA
  6
CONTINUOUS
 62
     7
 10
116.8364833845683
 20
824.92360911361845
 30
0.0
  0
VERTEX
  5
602
  8
DATA
  6
CONTINUOUS
 62
     7
 10
116.8708412000482
 20
824.92883342642176
 30
0.0
  0
VERTEX
  5
603
  8
DATA
  6
CONTINUOUS
 62
     7
 10
116.90527351168809
 20
824.93374111420644
 30
0.0
  0
VERTEX
  5
604
  8
DATA
  6
CONTINUOUS
 62
     7
 10
116.93978031948799
 20
824.93833217697295
 30
0.0
  0
VERTEX
  5
605
  8
DATA
  6
CONTINUOUS
 62
     7
 10
116.97436162344771
 20
824.94260661472151
 30
0.0
  0
VERTEX
  5
606
  8
DATA
  6
CONTINUOUS
 62
     7
 10
117.0090174235677
 20
824.94656442745099
 30
0.0
  0
VERTEX
  5
607
  8
DATA
  6
CONTINUOUS
 62
     7
 10
117.0437477198475
 20
824.95020561516208
 30
0.0
  0
VERTEX
  5
608
  8
DATA
  6
CONTINUOUS
 62
     7
 10
117.0785525122874
 20
824.95353017785521
 30
0.0
  0
VERTEX
  5
609
  8
DATA
  6
CONTINUOUS
 62
     7
 10
117.1134318008872
 20
824.95653811552984
 30
0.0
  0
VERTEX
  5
60A
  8
DATA
  6
CONTINUOUS
 62
     7
 10
117.14838558564701
 20
824.95922942818595
 30
0.0
  0
VERTEX
  5
60B
  8
DATA
  6
CONTINUOUS
 62
     7
 10
117.1834138665667
 20
824.96160411582366
 30
0.0
  0
VERTEX
  5
60C
  8
DATA
  6
CONTINUOUS
 62
     7
 10
117.2185166436465
 20
824.96366217844343
 30
0.0
  0
VERTEX
  5
60D
  8
DATA
  6
CONTINUOUS
 62
     7
 10
117.25369391688641
 20
824.96540361604434
 30
0.0
  0
VERTEX
  5
60E
  8
DATA
  6
CONTINUOUS
 62
     7
 10
117.2889456862862
 20
824.9668284286272
 30
0.0
  0
VERTEX
  5
60F
  8
DATA
  6
CONTINUOUS
 62
     7
 10
117.3242719518459
 20
824.96793661619131
 30
0.0
  0
VERTEX
  5
610
  8
DATA
  6
CONTINUOUS
 62
     7
 10
117.3596727135657
 20
824.96872817873714
 30
0.0
  0
VERTEX
  5
611
  8
DATA
  6
CONTINUOUS
 62
     7
 10
117.3951479714454
 20
824.96920311626479
 30
0.0
  0
VERTEX
  5
612
  8
DATA
  6
CONTINUOUS
 62
     7
 10
117.4306977254853
 20
824.96936142877405
 30
0.0
  0
VERTEX
  5
613
  8
DATA
  6
CONTINUOUS
 62
     7
 10
117.46624747952509
 20
824.96920311626479
 30
0.0
  0
VERTEX
  5
614
  8
DATA
  6
CONTINUOUS
 62
     7
 10
117.5017227374048
 20
824.96872817873714
 30
0.0
  0
VERTEX
  5
615
  8
DATA
  6
CONTINUOUS
 62
     7
 10
117.5371234991246
 20
824.96793661619131
 30
0.0
  0
VERTEX
  5
616
  8
DATA
  6
CONTINUOUS
 62
     7
 10
117.57244976468439
 20
824.9668284286272
 30
0.0
  0
VERTEX
  5
617
  8
DATA
  6
CONTINUOUS
 62
     7
 10
117.6077015340842
 20
824.96540361604434
 30
0.0
  0
VERTEX
  5
618
  8
DATA
  6
CONTINUOUS
 62
     7
 10
117.642878807324
 20
824.96366217844343
 30
0.0
  0
VERTEX
  5
619
  8
DATA
  6
CONTINUOUS
 62
     7
 10
117.6779815844038
 20
824.96160411582366
 30
0.0
  0
VERTEX
  5
61A
  8
DATA
  6
CONTINUOUS
 62
     7
 10
117.7130098653235
 20
824.95922942818595
 30
0.0
  0
VERTEX
  5
61B
  8
DATA
  6
CONTINUOUS
 62
     7
 10
117.74796365008341
 20
824.95653811552984
 30
0.0
  0
VERTEX
  5
61C
  8
DATA
  6
CONTINUOUS
 62
     7
 10
117.7828429386832
 20
824.95353017785521
 30
0.0
  0
VERTEX
  5
61D
  8
DATA
  6
CONTINUOUS
 62
     7
 10
117.8176477311231
 20
824.95020561516208
 30
0.0
  0
VERTEX
  5
61E
  8
DATA
  6
CONTINUOUS
 62
     7
 10
117.85237802740281
 20
824.94656442745099
 30
0.0
  0
VERTEX
  5
61F
  8
DATA
  6
CONTINUOUS
 62
     7
 10
117.8870338275228
 20
824.94260661472151
 30
0.0
  0
VERTEX
  5
620
  8
DATA
  6
CONTINUOUS
 62
     7
 10
117.9216151314825
 20
824.93833217697295
 30
0.0
  0
VERTEX
  5
621
  8
DATA
  6
CONTINUOUS
 62
     7
 10
117.9561219392824
 20
824.93374111420644
 30
0.0
  0
VERTEX
  5
622
  8
DATA
  6
CONTINUOUS
 62
     7
 10
117.9905542509223
 20
824.92883342642176
 30
0.0
  0
VERTEX
  5
623
  8
DATA
  6
CONTINUOUS
 62
     7
 10
118.02491206640229
 20
824.92360911361845
 30
0.0
  0
VERTEX
  5
624
  8
DATA
  6
CONTINUOUS
 62
     7
 10
118.05919538572201
 20
824.91806817579709
 30
0.0
  0
VERTEX
  5
625
  8
DATA
  6
CONTINUOUS
 62
     7
 10
118.09340420888201
 20
824.91221061295698
 30
0.0
  0
VERTEX
  5
626
  8
DATA
  6
CONTINUOUS
 62
     7
 10
118.1275385358819
 20
824.90603642509859
 30
0.0
  0
VERTEX
  5
627
  8
DATA
  6
CONTINUOUS
 62
     7
 10
118.1615983667218
 20
824.89954561222214
 30
0.0
  0
VERTEX
  5
628
  8
DATA
  6
CONTINUOUS
 62
     7
 10
118.1955837014018
 20
824.89273817432695
 30
0.0
  0
VERTEX
  5
629
  8
DATA
  6
CONTINUOUS
 62
     7
 10
118.2294945399217
 20
824.88561411141347
 30
0.0
  0
VERTEX
  5
62A
  8
DATA
  6
CONTINUOUS
 62
     7
 10
118.26333088228159
 20
824.8781734234816
 30
0.0
  0
VERTEX
  5
62B
  8
DATA
  6
CONTINUOUS
 62
     7
 10
118.2970927284816
 20
824.87041611053144
 30
0.0
  0
VERTEX
  5
62C
  8
DATA
  6
CONTINUOUS
 62
     7
 10
118.3307800785214
 20
824.86234217256265
 30
0.0
  0
VERTEX
  5
62D
  8
DATA
  6
CONTINUOUS
 62
     7
 10
118.3643929324014
 20
824.85395160957569
 30
0.0
  0
VERTEX
  5
62E
  8
DATA
  6
CONTINUOUS
 62
     7
 10
118.39793129012141
 20
824.84524442157044
 30
0.0
  0
VERTEX
  5
62F
  8
DATA
  6
CONTINUOUS
 62
     7
 10
118.4313951516815
 20
824.83622060854645
 30
0.0
  0
VERTEX
  5
630
  8
DATA
  6
CONTINUOUS
 62
     7
 10
118.4647845170814
 20
824.82688017050464
 30
0.0
  0
VERTEX
  5
631
  8
DATA
  6
CONTINUOUS
 62
     7
 10
118.4980993863214
 20
824.81722310744431
 30
0.0
  0
VERTEX
  5
632
  8
DATA
  6
CONTINUOUS
 62
     7
 10
118.53133975940131
 20
824.80724941936512
 30
0.0
  0
VERTEX
  5
633
  8
DATA
  6
CONTINUOUS
 62
     7
 10
118.5645056363214
 20
824.79695910626799
 30
0.0
  0
VERTEX
  5
634
  8
DATA
  6
CONTINUOUS
 62
     7
 10
118.5975970170814
 20
824.78635216815235
 30
0.0
  0
VERTEX
  5
635
  8
DATA
  6
CONTINUOUS
 62
     7
 10
118.6306139016815
 20
824.77542860501831
 30
0.0
  0
VERTEX
  5
636
  8
DATA
  6
CONTINUOUS
 62
     7
 10
118.66355629012141
 20
824.76418841686609
 30
0.0
  0
VERTEX
  5
637
  8
DATA
  6
CONTINUOUS
 62
     7
 10
118.6964241824014
 20
824.75263160369525
 30
0.0
  0
VERTEX
  5
638
  8
DATA
  6
CONTINUOUS
 62
     7
 10
118.7292175785214
 20
824.74075816550624
 30
0.0
  0
VERTEX
  5
639
  8
DATA
  6
CONTINUOUS
 62
     7
 10
118.7619364784816
 20
824.72856810229871
 30
0.0
  0
VERTEX
  5
63A
  8
DATA
  6
CONTINUOUS
 62
     7
 10
118.79458088228159
 20
824.71606141407278
 30
0.0
  0
VERTEX
  5
63B
  8
DATA
  6
CONTINUOUS
 62
     7
 10
118.8271507899217
 20
824.70323810082846
 30
0.0
  0
VERTEX
  5
63C
  8
DATA
  6
CONTINUOUS
 62
     7
 10
118.8596462014018
 20
824.69009816256585
 30
0.0
  0
VERTEX
  5
63D
  8
DATA
  6
CONTINUOUS
 62
     7
 10
118.8920671167218
 20
824.67664159928495
 30
0.0
  0
VERTEX
  5
63E
  8
DATA
  6
CONTINUOUS
 62
     7
 10
118.9244135358819
 20
824.66286841098565
 30
0.0
  0
VERTEX
  5
63F
  8
DATA
  6
CONTINUOUS
 62
     7
 10
118.95668545888201
 20
824.64877859766796
 30
0.0
  0
VERTEX
  5
640
  8
DATA
  6
CONTINUOUS
 62
     7
 10
118.98888288572201
 20
824.63437215933163
 30
0.0
  0
VERTEX
  5
641
  8
DATA
  6
CONTINUOUS
 62
     7
 10
119.02100581640229
 20
824.61964909597725
 30
0.0
  0
VERTEX
  5
642
  8
DATA
  6
CONTINUOUS
 62
     7
 10
119.0530542509222
 20
824.60460940760436
 30
0.0
  0
VERTEX
  5
643
  8
DATA
  6
CONTINUOUS
 62
     7
 10
119.0850281892824
 20
824.58925309421284
 30
0.0
  0
VERTEX
  5
644
  8
DATA
  6
CONTINUOUS
 62
     7
 10
119.1169276314825
 20
824.57358015580348
 30
0.0
  0
VERTEX
  5
645
  8
DATA
  6
CONTINUOUS
 62
     7
 10
119.1487525775228
 20
824.55759059237539
 30
0.0
  0
VERTEX
  5
646
  8
DATA
  6
CONTINUOUS
 62
     7
 10
119.18050302740291
 20
824.5412844039289
 30
0.0
  0
VERTEX
  5
647
  8
DATA
  6
CONTINUOUS
 62
     7
 10
119.2121789811231
 20
824.52466159046401
 30
0.0
  0
VERTEX
  5
648
  8
DATA
  6
CONTINUOUS
 62
     7
 10
119.2437804386832
 20
824.50772215198117
 30
0.0
  0
VERTEX
  5
649
  8
DATA
  6
CONTINUOUS
 62
     7
 10
119.27530740008341
 20
824.49046608847948
 30
0.0
  0
VERTEX
  5
64A
  8
DATA
  6
CONTINUOUS
 62
     7
 10
119.3067598653235
 20
824.47289339995962
 30
0.0
  0
VERTEX
  5
64B
  8
DATA
  6
CONTINUOUS
 62
     7
 10
119.3381378344038
 20
824.45500408642147
 30
0.0
  0
VERTEX
  5
64C
  8
DATA
  6
CONTINUOUS
 62
     7
 10
119.369441307324
 20
824.43679814786458
 30
0.0
  0
VERTEX
  5
64D
  8
DATA
  6
CONTINUOUS
 62
     7
 10
119.4006702840842
 20
824.41827558428974
 30
0.0
  0
VERTEX
  5
64E
  8
DATA
  6
CONTINUOUS
 62
     7
 10
119.43182476468439
 20
824.3994363956964
 30
0.0
  0
VERTEX
  5
64F
  8
DATA
  6
CONTINUOUS
 62
     7
 10
119.4629047491246
 20
824.38028058208454
 30
0.0
  0
VERTEX
  5
650
  8
DATA
  6
CONTINUOUS
 62
     7
 10
119.4939102374048
 20
824.36080814345439
 30
0.0
  0
VERTEX
  5
651
  8
DATA
  6
CONTINUOUS
 62
     7
 10
119.52484122952509
 20
824.34101907980573
 30
0.0
  0
VERTEX
  5
652
  8
DATA
  6
CONTINUOUS
 62
     7
 10
119.5556977254853
 20
824.32091339113902
 30
0.0
  0
VERTEX
  5
653
  8
DATA
  6
CONTINUOUS
 62
     7
 10
119.5864152097184
 20
824.30053349716275
 30
0.0
  0
VERTEX
  5
654
  8
DATA
  6
CONTINUOUS
 62
     7
 10
119.6169291666576
 20
824.27992181758611
 30
0.0
  0
VERTEX
  5
655
  8
DATA
  6
CONTINUOUS
 62
     7
 10
119.6472395963026
 20
824.25907835240889
 30
0.0
  0
VERTEX
  5
656
  8
DATA
  6
CONTINUOUS
 62
     7
 10
119.6773464986537
 20
824.23800310163131
 30
0.0
  0
VERTEX
  5
657
  8
DATA
  6
CONTINUOUS
 62
     7
 10
119.70724987371069
 20
824.21669606525336
 30
0.0
  0
VERTEX
  5
658
  8
DATA
  6
CONTINUOUS
 62
     7
 10
119.73694972147359
 20
824.19515724327516
 30
0.0
  0
VERTEX
  5
659
  8
DATA
  6
CONTINUOUS
 62
     7
 10
119.7664460419423
 20
824.1733866356966
 30
0.0
  0
VERTEX
  5
65A
  8
DATA
  6
CONTINUOUS
 62
     7
 10
119.79573883511701
 20
824.15138424251757
 30
0.0
  0
VERTEX
  5
65B
  8
DATA
  6
CONTINUOUS
 62
     7
 10
119.82482810099761
 20
824.12915006373794
 30
0.0
  0
VERTEX
  5
65C
  8
DATA
  6
CONTINUOUS
 62
     7
 10
119.8537138395843
 20
824.10668409935795
 30
0.0
  0
VERTEX
  5
65D
  8
DATA
  6
CONTINUOUS
 62
     7
 10
119.88239605087669
 20
824.08398634937771
 30
0.0
  0
VERTEX
  5
65E
  8
DATA
  6
CONTINUOUS
 62
     7
 10
119.91087473487519
 20
824.06105681379699
 30
0.0
  0
VERTEX
  5
65F
  8
DATA
  6
CONTINUOUS
 62
     7
 10
119.9391498915797
 20
824.03789549261592
 30
0.0
  0
VERTEX
  5
660
  8
DATA
  6
CONTINUOUS
 62
     7
 10
119.96722152098999
 20
824.01450238583482
 30
0.0
  0
VERTEX
  5
661
  8
DATA
  6
CONTINUOUS
 62
     7
 10
119.9950896231062
 20
823.99087749345244
 30
0.0
  0
VERTEX
  5
662
  8
DATA
  6
CONTINUOUS
 62
     7
 10
120.02275419792841
 20
823.96702081547039
 30
0.0
  0
VERTEX
  5
663
  8
DATA
  6
CONTINUOUS
 62
     7
 10
120.0502152454564
 20
823.94293235188763
 30
0.0
  0
VERTEX
  5
664
  8
DATA
  6
CONTINUOUS
 62
     7
 10
120.0774727656905
 20
823.91861210270463
 30
0.0
  0
VERTEX
  5
665
  8
DATA
  6
CONTINUOUS
 62
     7
 10
120.1045267586305
 20
823.89406006792103
 30
0.0
  0
VERTEX
  5
666
  8
DATA
  6
CONTINUOUS
 62
     7
 10
120.13137722427641
 20
823.86927624753719
 30
0.0
  0
VERTEX
  5
667
  8
DATA
  6
CONTINUOUS
 62
     7
 10
120.15802416262829
 20
823.84426064155298
 30
0.0
  0
VERTEX
  5
668
  8
DATA
  6
CONTINUOUS
 62
     7
 10
120.18446757368611
 20
823.81901324996829
 30
0.0
  0
VERTEX
  5
669
  8
DATA
  6
CONTINUOUS
 62
     7
 10
120.2107074574499
 20
823.79353407278313
 30
0.0
  0
VERTEX
  5
66A
  8
DATA
  6
CONTINUOUS
 62
     7
 10
120.2367438139195
 20
823.76782310999772
 30
0.0
  0
VERTEX
  5
66B
  8
DATA
  6
CONTINUOUS
 62
     7
 10
120.262576643095
 20
823.74188036161195
 30
0.0
  0
VERTEX
  5
66C
  8
DATA
  6
CONTINUOUS
 62
     7
 10
120.2882059449766
 20
823.71570582762558
 30
0.0
  0
VERTEX
  5
66D
  8
DATA
  6
CONTINUOUS
 62
     7
 10
120.313631719564
 20
823.68929950803897
 30
0.0
  0
VERTEX
  5
66E
  8
DATA
  6
CONTINUOUS
 62
     7
 10
120.3388539668574
 20
823.66266140285188
 30
0.0
  0
VERTEX
  5
66F
  8
DATA
  6
CONTINUOUS
 62
     7
 10
120.36387268685669
 20
823.63579151206443
 30
0.0
  0
VERTEX
  5
670
  8
DATA
  6
CONTINUOUS
 62
     7
 10
120.388687879562
 20
823.60868983567661
 30
0.0
  0
VERTEX
  5
671
  8
DATA
  6
CONTINUOUS
 62
     7
 10
120.413299544973
 20
823.58135637368832
 30
0.0
  0
VERTEX
  5
672
  8
DATA
  6
CONTINUOUS
 62
     7
 10
120.4377076830901
 20
823.55379112609955
 30
0.0
  0
VERTEX
  5
673
  8
DATA
  6
CONTINUOUS
 62
     7
 10
120.4619122939132
 20
823.52599409291042
 30
0.0
  0
VERTEX
  5
674
  8
DATA
  6
CONTINUOUS
 62
     7
 10
120.4859133774421
 20
823.49796527412093
 30
0.0
  0
VERTEX
  5
675
  8
DATA
  6
CONTINUOUS
 62
     7
 10
120.5097109336769
 20
823.4697046697313
 30
0.0
  0
VERTEX
  5
676
  8
DATA
  6
CONTINUOUS
 62
     7
 10
120.53330496261771
 20
823.44121227974097
 30
0.0
  0
VERTEX
  5
677
  8
DATA
  6
CONTINUOUS
 62
     7
 10
120.55669546426449
 20
823.41248810415016
 30
0.0
  0
VERTEX
  5
678
  8
DATA
  6
CONTINUOUS
 62
     7
 10
120.5798824386172
 20
823.38353214295933
 30
0.0
  0
VERTEX
  5
679
  8
DATA
  6
CONTINUOUS
 62
     7
 10
120.6028658856757
 20
823.3543443961679
 30
0.0
  0
VERTEX
  5
67A
  8
DATA
  6
CONTINUOUS
 62
     7
 10
120.6256458054404
 20
823.32492486377578
 30
0.0
  0
VERTEX
  5
67B
  8
DATA
  6
CONTINUOUS
 62
     7
 10
120.6482221979108
 20
823.29527354578374
 30
0.0
  0
VERTEX
  5
67C
  8
DATA
  6
CONTINUOUS
 62
     7
 10
120.6705950630873
 20
823.26539044219101
 30
0.0
  0
VERTEX
  5
67D
  8
DATA
  6
CONTINUOUS
 62
     7
 10
120.69276440096969
 20
823.23527555299825
 30
0.0
  0
VERTEX
  5
67E
  8
DATA
  6
CONTINUOUS
 62
     7
 10
120.71473021155791
 20
823.20492887820456
 30
0.0
  0
VERTEX
  5
67F
  8
DATA
  6
CONTINUOUS
 62
     7
 10
120.7364924948521
 20
823.17435041781084
 30
0.0
  0
VERTEX
  5
680
  8
DATA
  6
CONTINUOUS
 62
     7
 10
120.7580512508523
 20
823.14354017181631
 30
0.0
  0
VERTEX
  5
681
  8
DATA
  6
CONTINUOUS
 62
     7
 10
120.7794064795582
 20
823.11249814022165
 30
0.0
  0
VERTEX
  5
682
  8
DATA
  6
CONTINUOUS
 62
     7
 10
120.8005581809703
 20
823.08122432302685
 30
0.0
  0
VERTEX
  5
683
  8
DATA
  6
CONTINUOUS
 62
     7
 10
120.8215063550883
 20
823.04971872023134
 30
0.0
  0
VERTEX
  5
684
  8
DATA
  6
CONTINUOUS
 62
     7
 10
120.8422510019122
 20
823.01798133183536
 30
0.0
  0
VERTEX
  5
685
  8
DATA
  6
CONTINUOUS
 62
     7
 10
120.862792121442
 20
822.98601215783924
 30
0.0
  0
VERTEX
  5
686
  8
DATA
  6
CONTINUOUS
 62
     7
 10
120.8831297136777
 20
822.95381119824242
 30
0.0
  0
VERTEX
  5
687
  8
DATA
  6
CONTINUOUS
 62
     7
 10
120.90326377861921
 20
822.92137845304535
 30
0.0
  0
VERTEX
  5
688
  8
DATA
  6
CONTINUOUS
 62
     7
 10
120.9231943162669
 20
822.88871392224792
 30
0.0
  0
VERTEX
  5
689
  8
DATA
  6
CONTINUOUS
 62
     7
 10
120.94292132662039
 20
822.85581760585023
 30
0.0
  0
VERTEX
  5
68A
  8
DATA
  6
CONTINUOUS
 62
     7
 10
120.96244480967989
 20
822.82268950385185
 30
0.0
  0
VERTEX
  5
68B
  8
DATA
  6
CONTINUOUS
 62
     7
 10
120.9817647654454
 20
822.78932961625321
 30
0.0
  0
VERTEX
  5
68C
  8
DATA
  6
CONTINUOUS
 62
     7
 10
121.0008811939167
 20
822.75573794305421
 30
0.0
  0
VERTEX
  5
68D
  8
DATA
  6
CONTINUOUS
 62
     7
 10
121.0197940950938
 20
822.72191448425463
 30
0.0
  0
VERTEX
  5
68E
  8
DATA
  6
CONTINUOUS
 62
     7
 10
121.038503468977
 20
822.68785923985502
 30
0.0
  0
VERTEX
  5
68F
  8
DATA
  6
CONTINUOUS
 62
     7
 10
121.05700931556611
 20
822.65357220985459
 30
0.0
  0
VERTEX
  5
690
  8
DATA
  6
CONTINUOUS
 62
     7
 10
121.07531163486119
 20
822.61905339425402
 30
0.0
  0
VERTEX
  5
691
  8
DATA
  6
CONTINUOUS
 62
     7
 10
121.09341042686221
 20
822.5843027930531
 30
0.0
  0
VERTEX
  5
692
  8
DATA
  6
CONTINUOUS
 62
     7
 10
121.1113056915692
 20
822.54932040625158
 30
0.0
  0
VERTEX
  5
693
  8
DATA
  6
CONTINUOUS
 62
     7
 10
121.1289601809021
 20
822.51417970694104
 30
0.0
  0
VERTEX
  5
694
  8
DATA
  6
CONTINUOUS
 62
     7
 10
121.1463366467809
 20
822.47895416821245
 30
0.0
  0
VERTEX
  5
695
  8
DATA
  6
CONTINUOUS
 62
     7
 10
121.16343508920571
 20
822.44364379006561
 30
0.0
  0
VERTEX
  5
696
  8
DATA
  6
CONTINUOUS
 62
     7
 10
121.1802555081763
 20
822.40824857250107
 30
0.0
  0
VERTEX
  5
697
  8
DATA
  6
CONTINUOUS
 62
     7
 10
121.1967979036928
 20
822.37276851551871
 30
0.0
  0
VERTEX
  5
698
  8
DATA
  6
CONTINUOUS
 62
     7
 10
121.21306227575541
 20
822.33720361911821
 30
0.0
  0
VERTEX
  5
699
  8
DATA
  6
CONTINUOUS
 62
     7
 10
121.2290486243639
 20
822.3015538832999
 30
0.0
  0
VERTEX
  5
69A
  8
DATA
  6
CONTINUOUS
 62
     7
 10
121.2447569495183
 20
822.26581930806333
 30
0.0
  0
VERTEX
  5
69B
  8
DATA
  6
CONTINUOUS
 62
     7
 10
121.2601872512186
 20
822.22999989340883
 30
0.0
  0
VERTEX
  5
69C
  8
DATA
  6
CONTINUOUS
 62
     7
 10
121.275339529465
 20
822.19409563933641
 30
0.0
  0
VERTEX
  5
69D
  8
DATA
  6
CONTINUOUS
 62
     7
 10
121.2902137842573
 20
822.15810654584595
 30
0.0
  0
VERTEX
  5
69E
  8
DATA
  6
CONTINUOUS
 62
     7
 10
121.30481001559539
 20
822.1220326129378
 30
0.0
  0
VERTEX
  5
69F
  8
DATA
  6
CONTINUOUS
 62
     7
 10
121.3191282234795
 20
822.08587384061161
 30
0.0
  0
VERTEX
  5
6A0
  8
DATA
  6
CONTINUOUS
 62
     7
 10
121.3331684079096
 20
822.04963022886704
 30
0.0
  0
VERTEX
  5
6A1
  8
DATA
  6
CONTINUOUS
 62
     7
 10
121.3469305688855
 20
822.01330177770456
 30
0.0
  0
VERTEX
  5
6A2
  8
DATA
  6
CONTINUOUS
 62
     7
 10
121.3604147064075
 20
821.97688848712426
 30
0.0
  0
VERTEX
  5
6A3
  8
DATA
  6
CONTINUOUS
 62
     7
 10
121.3736208204753
 20
821.94039035712615
 30
0.0
  0
VERTEX
  5
6A4
  8
DATA
  6
CONTINUOUS
 62
     7
 10
121.38654891108921
 20
821.90380738770966
 30
0.0
  0
VERTEX
  5
6A5
  8
DATA
  6
CONTINUOUS
 62
     7
 10
121.3991989782489
 20
821.86713957887559
 30
0.0
  0
VERTEX
  5
6A6
  8
DATA
  6
CONTINUOUS
 62
     7
 10
121.4115710219546
 20
821.83038693062338
 30
0.0
  0
VERTEX
  5
6A7
  8
DATA
  6
CONTINUOUS
 62
     7
 10
121.4236650422062
 20
821.79354944295324
 30
0.0
  0
VERTEX
  5
6A8
  8
DATA
  6
CONTINUOUS
 62
     7
 10
121.4354810390039
 20
821.75662711586517
 30
0.0
  0
VERTEX
  5
6A9
  8
DATA
  6
CONTINUOUS
 62
     7
 10
121.4470190123473
 20
821.71961994935884
 30
0.0
  0
VERTEX
  5
6AA
  8
DATA
  6
CONTINUOUS
 62
     7
 10
121.4582789622368
 20
821.68252794343493
 30
0.0
  0
VERTEX
  5
6AB
  8
DATA
  6
CONTINUOUS
 62
     7
 10
121.4692608886722
 20
821.64535109809276
 30
0.0
  0
VERTEX
  5
6AC
  8
DATA
  6
CONTINUOUS
 62
     7
 10
121.4799647916536
 20
821.60808941333266
 30
0.0
  0
VERTEX
  5
6AD
  8
DATA
  6
CONTINUOUS
 62
     7
 10
121.4903906711809
 20
821.57074288915476
 30
0.0
  0
VERTEX
  5
6AE
  8
DATA
  6
CONTINUOUS
 62
     7
 10
121.50053852725399
 20
821.5333115255587
 30
0.0
  0
VERTEX
  5
6AF
  8
DATA
  6
CONTINUOUS
 62
     7
 10
121.510408359873
 20
821.49579532254472
 30
0.0
  0
VERTEX
  5
6B0
  8
DATA
  6
CONTINUOUS
 62
     7
 10
121.5200001690382
 20
821.45819428011259
 30
0.0
  0
VERTEX
  5
6B1
  8
DATA
  6
CONTINUOUS
 62
     7
 10
121.5293139547492
 20
821.42050839826277
 30
0.0
  0
VERTEX
  5
6B2
  8
DATA
  6
CONTINUOUS
 62
     7
 10
121.5383497170062
 20
821.38273767699479
 30
0.0
  0
VERTEX
  5
6B3
  8
DATA
  6
CONTINUOUS
 62
     7
 10
121.5471074558091
 20
821.34488211630901
 30
0.0
  0
VERTEX
  5
6B4
  8
DATA
  6
CONTINUOUS
 62
     7
 10
121.55558717115809
 20
821.3069417162053
 30
0.0
  0
VERTEX
  5
6B5
  8
DATA
  6
CONTINUOUS
 62
     7
 10
121.56378886305291
 20
821.26891647668344
 30
0.0
  0
VERTEX
  5
6B6
  8
DATA
  6
CONTINUOUS
 62
     7
 10
121.5717125314935
 20
821.23080639774332
 30
0.0
  0
VERTEX
  5
6B7
  8
DATA
  6
CONTINUOUS
 62
     7
 10
121.5793581764801
 20
821.19261147938585
 30
0.0
  0
VERTEX
  5
6B8
  8
DATA
  6
CONTINUOUS
 62
     7
 10
121.58672579801279
 20
821.15433172160965
 30
0.0
  0
VERTEX
  5
6B9
  8
DATA
  6
CONTINUOUS
 62
     7
 10
121.5938153960913
 20
821.11596712441622
 30
0.0
  0
VERTEX
  5
6BA
  8
DATA
  6
CONTINUOUS
 62
     7
 10
121.60062697071579
 20
821.0775176878044
 30
0.0
  0
VERTEX
  5
6BB
  8
DATA
  6
CONTINUOUS
 62
     7
 10
121.6071605218862
 20
821.03898341177444
 30
0.0
  0
VERTEX
  5
6BC
  8
DATA
  6
CONTINUOUS
 62
     7
 10
121.61341604960261
 20
821.00036429632678
 30
0.0
  0
VERTEX
  5
6BD
  8
DATA
  6
CONTINUOUS
 62
     7
 10
121.6193935538649
 20
820.9616603414612
 30
0.0
  0
VERTEX
  5
6BE
  8
DATA
  6
CONTINUOUS
 62
     7
 10
121.6250930346732
 20
820.92287154717746
 30
0.0
  0
VERTEX
  5
6BF
  8
DATA
  6
CONTINUOUS
 62
     7
 10
121.6305144920273
 20
820.88399791347581
 30
0.0
  0
VERTEX
  5
6C0
  8
DATA
  6
CONTINUOUS
 62
     7
 10
121.6356579259275
 20
820.84503944035635
 30
0.0
  0
VERTEX
  5
6C1
  8
DATA
  6
CONTINUOUS
 62
     7
 10
121.64052333637341
 20
820.80599612781884
 30
0.0
  0
VERTEX
  5
6C2
  8
DATA
  6
CONTINUOUS
 62
     7
 10
121.64511072336551
 20
820.76686797586308
 30
0.0
  0
VERTEX
  5
6C3
  8
DATA
  6
CONTINUOUS
 62
     7
 10
121.6494200869035
 20
820.72765498448962
 30
0.0
  0
VERTEX
  5
6C4
  8
DATA
  6
CONTINUOUS
 62
     7
 10
121.6534514269874
 20
820.68835715369801
 30
0.0
  0
VERTEX
  5
6C5
  8
DATA
  6
CONTINUOUS
 62
     7
 10
121.6572047436171
 20
820.64897448348881
 30
0.0
  0
VERTEX
  5
6C6
  8
DATA
  6
CONTINUOUS
 62
     7
 10
121.6606800367928
 20
820.60950697386102
 30
0.0
  0
VERTEX
  5
6C7
  8
DATA
  6
CONTINUOUS
 62
     7
 10
121.66387730651449
 20
820.56995462481575
 30
0.0
  0
VERTEX
  5
6C8
  8
DATA
  6
CONTINUOUS
 62
     7
 10
121.6667965527822
 20
820.53031743635233
 30
0.0
  0
VERTEX
  5
6C9
  8
DATA
  6
CONTINUOUS
 62
     7
 10
121.6694377755957
 20
820.49059540847077
 30
0.0
  0
VERTEX
  5
6CA
  8
DATA
  6
CONTINUOUS
 62
     7
 10
121.6718009749553
 20
820.45078854117162
 30
0.0
  0
VERTEX
  5
6CB
  8
DATA
  6
CONTINUOUS
 62
     7
 10
121.6738861508608
 20
820.41089683445421
 30
0.0
  0
VERTEX
  5
6CC
  8
DATA
  6
CONTINUOUS
 62
     7
 10
121.6756933033123
 20
820.37092028831864
 30
0.0
  0
VERTEX
  5
6CD
  8
DATA
  6
CONTINUOUS
 62
     7
 10
121.67722243230961
 20
820.33085890276539
 30
0.0
  0
VERTEX
  5
6CE
  8
DATA
  6
CONTINUOUS
 62
     7
 10
121.6784735378528
 20
820.2907126777942
 30
0.0
  0
VERTEX
  5
6CF
  8
DATA
  6
CONTINUOUS
 62
     7
 10
121.679446619942
 20
820.25048161340499
 30
0.0
  0
VERTEX
  5
6D0
  8
DATA
  6
CONTINUOUS
 62
     7
 10
121.6801416785772
 20
820.21016570959762
 30
0.0
  0
VERTEX
  5
6D1
  8
DATA
  6
CONTINUOUS
 62
     7
 10
121.6805587137582
 20
820.16976496637244
 30
0.0
  0
VERTEX
  5
6D2
  8
DATA
  6
CONTINUOUS
 62
     7
 10
121.6806977254853
 20
820.12927938372934
 30
0.0
  0
VERTEX
  5
6D3
  8
DATA
  6
CONTINUOUS
 62
     7
 10
121.6805587137582
 20
820.08879380108613
 30
0.0
  0
VERTEX
  5
6D4
  8
DATA
  6
CONTINUOUS
 62
     7
 10
121.6801416785772
 20
820.04839305786084
 30
0.0
  0
VERTEX
  5
6D5
  8
DATA
  6
CONTINUOUS
 62
     7
 10
121.679446619942
 20
820.00807715405335
 30
0.0
  0
VERTEX
  5
6D6
  8
DATA
  6
CONTINUOUS
 62
     7
 10
121.6784735378528
 20
819.96784608966425
 30
0.0
  0
VERTEX
  5
6D7
  8
DATA
  6
CONTINUOUS
 62
     7
 10
121.67722243230961
 20
819.92769986469295
 30
0.0
  0
VERTEX
  5
6D8
  8
DATA
  6
CONTINUOUS
 62
     7
 10
121.6756933033123
 20
819.8876384791397
 30
0.0
  0
VERTEX
  5
6D9
  8
DATA
  6
CONTINUOUS
 62
     7
 10
121.6738861508608
 20
819.84766193300425
 30
0.0
  0
VERTEX
  5
6DA
  8
DATA
  6
CONTINUOUS
 62
     7
 10
121.6718009749553
 20
819.80777022628695
 30
0.0
  0
VERTEX
  5
6DB
  8
DATA
  6
CONTINUOUS
 62
     7
 10
121.6694377755957
 20
819.76796335898757
 30
0.0
  0
VERTEX
  5
6DC
  8
DATA
  6
CONTINUOUS
 62
     7
 10
121.6667965527822
 20
819.72824133110635
 30
0.0
  0
VERTEX
  5
6DD
  8
DATA
  6
CONTINUOUS
 62
     7
 10
121.66387730651449
 20
819.6886041426427
 30
0.0
  0
VERTEX
  5
6DE
  8
DATA
  6
CONTINUOUS
 62
     7
 10
121.6606800367928
 20
819.64905179359721
 30
0.0
  0
VERTEX
  5
6DF
  8
DATA
  6
CONTINUOUS
 62
     7
 10
121.6572047436171
 20
819.60958428396975
 30
0.0
  0
VERTEX
  5
6E0
  8
DATA
  6
CONTINUOUS
 62
     7
 10
121.6534514269874
 20
819.57020161376033
 30
0.0
  0
VERTEX
  5
6E1
  8
DATA
  6
CONTINUOUS
 62
     7
 10
121.6494200869035
 20
819.53090378296872
 30
0.0
  0
VERTEX
  5
6E2
  8
DATA
  6
CONTINUOUS
 62
     7
 10
121.64511072336551
 20
819.49169079159526
 30
0.0
  0
VERTEX
  5
6E3
  8
DATA
  6
CONTINUOUS
 62
     7
 10
121.64052333637341
 20
819.45256263963961
 30
0.0
  0
VERTEX
  5
6E4
  8
DATA
  6
CONTINUOUS
 62
     7
 10
121.6356579259275
 20
819.41351932710211
 30
0.0
  0
VERTEX
  5
6E5
  8
DATA
  6
CONTINUOUS
 62
     7
 10
121.6305144920273
 20
819.37456085398242
 30
0.0
  0
VERTEX
  5
6E6
  8
DATA
  6
CONTINUOUS
 62
     7
 10
121.6250930346732
 20
819.33568722028099
 30
0.0
  0
VERTEX
  5
6E7
  8
DATA
  6
CONTINUOUS
 62
     7
 10
121.6193935538649
 20
819.29689842599714
 30
0.0
  0
VERTEX
  5
6E8
  8
DATA
  6
CONTINUOUS
 62
     7
 10
121.61341604960261
 20
819.25819447113145
 30
0.0
  0
VERTEX
  5
6E9
  8
DATA
  6
CONTINUOUS
 62
     7
 10
121.6071605218862
 20
819.2195753556839
 30
0.0
  0
VERTEX
  5
6EA
  8
DATA
  6
CONTINUOUS
 62
     7
 10
121.60062697071579
 20
819.18104107965405
 30
0.0
  0
VERTEX
  5
6EB
  8
DATA
  6
CONTINUOUS
 62
     7
 10
121.5938153960913
 20
819.14259164304246
 30
0.0
  0
VERTEX
  5
6EC
  8
DATA
  6
CONTINUOUS
 62
     7
 10
121.58672579801279
 20
819.10422704584869
 30
0.0
  0
VERTEX
  5
6ED
  8
DATA
  6
CONTINUOUS
 62
     7
 10
121.5793581764801
 20
819.06594728807295
 30
0.0
  0
VERTEX
  5
6EE
  8
DATA
  6
CONTINUOUS
 62
     7
 10
121.5717125314935
 20
819.0277523697149
 30
0.0
  0
VERTEX
  5
6EF
  8
DATA
  6
CONTINUOUS
 62
     7
 10
121.56378886305291
 20
818.98964229077535
 30
0.0
  0
VERTEX
  5
6F0
  8
DATA
  6
CONTINUOUS
 62
     7
 10
121.55558717115809
 20
818.95161705125338
 30
0.0
  0
VERTEX
  5
6F1
  8
DATA
  6
CONTINUOUS
 62
     7
 10
121.5471074558091
 20
818.91367665114933
 30
0.0
  0
VERTEX
  5
6F2
  8
DATA
  6
CONTINUOUS
 62
     7
 10
121.5383497170062
 20
818.87582109046355
 30
0.0
  0
VERTEX
  5
6F3
  8
DATA
  6
CONTINUOUS
 62
     7
 10
121.5293139547492
 20
818.83805036919557
 30
0.0
  0
VERTEX
  5
6F4
  8
DATA
  6
CONTINUOUS
 62
     7
 10
121.5200001690382
 20
818.80036448734575
 30
0.0
  0
VERTEX
  5
6F5
  8
DATA
  6
CONTINUOUS
 62
     7
 10
121.510408359873
 20
818.76276344491384
 30
0.0
  0
VERTEX
  5
6F6
  8
DATA
  6
CONTINUOUS
 62
     7
 10
121.50053852725399
 20
818.72524724189952
 30
0.0
  0
VERTEX
  5
6F7
  8
DATA
  6
CONTINUOUS
 62
     7
 10
121.4903906711809
 20
818.68781587830381
 30
0.0
  0
VERTEX
  5
6F8
  8
DATA
  6
CONTINUOUS
 62
     7
 10
121.4799647916536
 20
818.65046935412568
 30
0.0
  0
VERTEX
  5
6F9
  8
DATA
  6
CONTINUOUS
 62
     7
 10
121.4692608886722
 20
818.61320766936558
 30
0.0
  0
VERTEX
  5
6FA
  8
DATA
  6
CONTINUOUS
 62
     7
 10
121.4582789622368
 20
818.57603082402375
 30
0.0
  0
VERTEX
  5
6FB
  8
DATA
  6
CONTINUOUS
 62
     7
 10
121.4470190123473
 20
818.5389388180995
 30
0.0
  0
VERTEX
  5
6FC
  8
DATA
  6
CONTINUOUS
 62
     7
 10
121.4354810390039
 20
818.50193165159317
 30
0.0
  0
VERTEX
  5
6FD
  8
DATA
  6
CONTINUOUS
 62
     7
 10
121.4236650422062
 20
818.46500932450533
 30
0.0
  0
VERTEX
  5
6FE
  8
DATA
  6
CONTINUOUS
 62
     7
 10
121.4115710219546
 20
818.42817183683508
 30
0.0
  0
VERTEX
  5
6FF
  8
DATA
  6
CONTINUOUS
 62
     7
 10
121.3991989782489
 20
818.39141918858274
 30
0.0
  0
VERTEX
  5
700
  8
DATA
  6
CONTINUOUS
 62
     7
 10
121.38654891108921
 20
818.35475137974868
 30
0.0
  0
VERTEX
  5
701
  8
DATA
  6
CONTINUOUS
 62
     7
 10
121.3736208204753
 20
818.31816841033265
 30
0.0
  0
VERTEX
  5
702
  8
DATA
  6
CONTINUOUS
 62
     7
 10
121.3604147064075
 20
818.28167028033408
 30
0.0
  0
VERTEX
  5
703
  8
DATA
  6
CONTINUOUS
 62
     7
 10
121.3469305688855
 20
818.24525698975378
 30
0.0
  0
VERTEX
  5
704
  8
DATA
  6
CONTINUOUS
 62
     7
 10
121.3331684079096
 20
818.20892853859129
 30
0.0
  0
VERTEX
  5
705
  8
DATA
  6
CONTINUOUS
 62
     7
 10
121.3191282234795
 20
818.17268492684696
 30
0.0
  0
VERTEX
  5
706
  8
DATA
  6
CONTINUOUS
 62
     7
 10
121.30481001559539
 20
818.13652615452088
 30
0.0
  0
VERTEX
  5
707
  8
DATA
  6
CONTINUOUS
 62
     7
 10
121.2902137842573
 20
818.10045222161239
 30
0.0
  0
VERTEX
  5
708
  8
DATA
  6
CONTINUOUS
 62
     7
 10
121.275339529465
 20
818.06446312812204
 30
0.0
  0
VERTEX
  5
709
  8
DATA
  6
CONTINUOUS
 62
     7
 10
121.2601872512186
 20
818.02855887404974
 30
0.0
  0
VERTEX
  5
70A
  8
DATA
  6
CONTINUOUS
 62
     7
 10
121.2447569495183
 20
817.99273945939535
 30
0.0
  0
VERTEX
  5
70B
  8
DATA
  6
CONTINUOUS
 62
     7
 10
121.2290486243639
 20
817.95700488415878
 30
0.0
  0
VERTEX
  5
70C
  8
DATA
  6
CONTINUOUS
 62
     7
 10
121.21306227575541
 20
817.92135514834013
 30
0.0
  0
VERTEX
  5
70D
  8
DATA
  6
CONTINUOUS
 62
     7
 10
121.1967979036928
 20
817.88579025193962
 30
0.0
  0
VERTEX
  5
70E
  8
DATA
  6
CONTINUOUS
 62
     7
 10
121.1802555081763
 20
817.85031019495705
 30
0.0
  0
VERTEX
  5
70F
  8
DATA
  6
CONTINUOUS
 62
     7
 10
121.16343508920571
 20
817.81491497739262
 30
0.0
  0
VERTEX
  5
710
  8
DATA
  6
CONTINUOUS
 62
     7
 10
121.1463366467809
 20
817.77960459924623
 30
0.0
  0
VERTEX
  5
711
  8
DATA
  6
CONTINUOUS
 62
     7
 10
121.1289601809021
 20
817.74437906051742
 30
0.0
  0
VERTEX
  5
712
  8
DATA
  6
CONTINUOUS
 62
     7
 10
121.1113056915692
 20
817.70923836120676
 30
0.0
  0
VERTEX
  5
713
  8
DATA
  6
CONTINUOUS
 62
     7
 10
121.09341042686221
 20
817.67425597440536
 30
0.0
  0
VERTEX
  5
714
  8
DATA
  6
CONTINUOUS
 62
     7
 10
121.07531163486119
 20
817.63950537320454
 30
0.0
  0
VERTEX
  5
715
  8
DATA
  6
CONTINUOUS
 62
     7
 10
121.05700931556611
 20
817.60498655760364
 30
0.0
  0
VERTEX
  5
716
  8
DATA
  6
CONTINUOUS
 62
     7
 10
121.038503468977
 20
817.57069952760332
 30
0.0
  0
VERTEX
  5
717
  8
DATA
  6
CONTINUOUS
 62
     7
 10
121.0197940950938
 20
817.5366442832036
 30
0.0
  0
VERTEX
  5
718
  8
DATA
  6
CONTINUOUS
 62
     7
 10
121.0008811939167
 20
817.50282082440413
 30
0.0
  0
VERTEX
  5
719
  8
DATA
  6
CONTINUOUS
 62
     7
 10
120.9817647654454
 20
817.46922915120524
 30
0.0
  0
VERTEX
  5
71A
  8
DATA
  6
CONTINUOUS
 62
     7
 10
120.96244480967989
 20
817.43586926360649
 30
0.0
  0
VERTEX
  5
71B
  8
DATA
  6
CONTINUOUS
 62
     7
 10
120.94292132662039
 20
817.40274116160845
 30
0.0
  0
VERTEX
  5
71C
  8
DATA
  6
CONTINUOUS
 62
     7
 10
120.9231943162669
 20
817.36984484521054
 30
0.0
  0
VERTEX
  5
71D
  8
DATA
  6
CONTINUOUS
 62
     7
 10
120.90326377861921
 20
817.33718031441322
 30
0.0
  0
VERTEX
  5
71E
  8
DATA
  6
CONTINUOUS
 62
     7
 10
120.8831297136777
 20
817.30474756921592
 30
0.0
  0
VERTEX
  5
71F
  8
DATA
  6
CONTINUOUS
 62
     7
 10
120.862792121442
 20
817.27254660961944
 30
0.0
  0
VERTEX
  5
720
  8
DATA
  6
CONTINUOUS
 62
     7
 10
120.8422510019122
 20
817.24057743562332
 30
0.0
  0
VERTEX
  5
721
  8
DATA
  6
CONTINUOUS
 62
     7
 10
120.8215063550883
 20
817.20884004722723
 30
0.0
  0
VERTEX
  5
722
  8
DATA
  6
CONTINUOUS
 62
     7
 10
120.8005581809703
 20
817.17733444443195
 30
0.0
  0
VERTEX
  5
723
  8
DATA
  6
CONTINUOUS
 62
     7
 10
120.7794064795582
 20
817.14606062723681
 30
0.0
  0
VERTEX
  5
724
  8
DATA
  6
CONTINUOUS
 62
     7
 10
120.7580512508523
 20
817.11501859564203
 30
0.0
  0
VERTEX
  5
725
  8
DATA
  6
CONTINUOUS
 62
     7
 10
120.7364924948521
 20
817.08420834964772
 30
0.0
  0
VERTEX
  5
726
  8
DATA
  6
CONTINUOUS
 62
     7
 10
120.71473021155791
 20
817.05362988925413
 30
0.0
  0
VERTEX
  5
727
  8
DATA
  6
CONTINUOUS
 62
     7
 10
120.69276440096969
 20
817.02328321446043
 30
0.0
  0
VERTEX
  5
728
  8
DATA
  6
CONTINUOUS
 62
     7
 10
120.6705950630873
 20
816.99316832526745
 30
0.0
  0
VERTEX
  5
729
  8
DATA
  6
CONTINUOUS
 62
     7
 10
120.6482221979108
 20
816.96328522167482
 30
0.0
  0
VERTEX
  5
72A
  8
DATA
  6
CONTINUOUS
 62
     7
 10
120.6256458054404
 20
816.93363390368256
 30
0.0
  0
VERTEX
  5
72B
  8
DATA
  6
CONTINUOUS
 62
     7
 10
120.6028658856757
 20
816.90421437129089
 30
0.0
  0
VERTEX
  5
72C
  8
DATA
  6
CONTINUOUS
 62
     7
 10
120.5798824386172
 20
816.87502662449936
 30
0.0
  0
VERTEX
  5
72D
  8
DATA
  6
CONTINUOUS
 62
     7
 10
120.55669546426449
 20
816.84607066330796
 30
0.0
  0
VERTEX
  5
72E
  8
DATA
  6
CONTINUOUS
 62
     7
 10
120.53330496261771
 20
816.8173464877176
 30
0.0
  0
VERTEX
  5
72F
  8
DATA
  6
CONTINUOUS
 62
     7
 10
120.5097109336769
 20
816.78885409772715
 30
0.0
  0
VERTEX
  5
730
  8
DATA
  6
CONTINUOUS
 62
     7
 10
120.4859133774421
 20
816.76059349333752
 30
0.0
  0
VERTEX
  5
731
  8
DATA
  6
CONTINUOUS
 62
     7
 10
120.4619122939132
 20
816.73256467454803
 30
0.0
  0
VERTEX
  5
732
  8
DATA
  6
CONTINUOUS
 62
     7
 10
120.4377076830901
 20
816.70476764135879
 30
0.0
  0
VERTEX
  5
733
  8
DATA
  6
CONTINUOUS
 62
     7
 10
120.413299544973
 20
816.67720239377024
 30
0.0
  0
VERTEX
  5
734
  8
DATA
  6
CONTINUOUS
 62
     7
 10
120.388687879562
 20
816.64986893178195
 30
0.0
  0
VERTEX
  5
735
  8
DATA
  6
CONTINUOUS
 62
     7
 10
120.36387268685669
 20
816.62276725539402
 30
0.0
  0
VERTEX
  5
736
  8
DATA
  6
CONTINUOUS
 62
     7
 10
120.3388539668574
 20
816.5958973646068
 30
0.0
  0
VERTEX
  5
737
  8
DATA
  6
CONTINUOUS
 62
     7
 10
120.313631719564
 20
816.56925925941948
 30
0.0
  0
VERTEX
  5
738
  8
DATA
  6
CONTINUOUS
 62
     7
 10
120.2882059449766
 20
816.54285293983276
 30
0.0
  0
VERTEX
  5
739
  8
DATA
  6
CONTINUOUS
 62
     7
 10
120.262576643095
 20
816.51667840584651
 30
0.0
  0
VERTEX
  5
73A
  8
DATA
  6
CONTINUOUS
 62
     7
 10
120.2367438139195
 20
816.4907356574605
 30
0.0
  0
VERTEX
  5
73B
  8
DATA
  6
CONTINUOUS
 62
     7
 10
120.2107074574499
 20
816.46502469467544
 30
0.0
  0
VERTEX
  5
73C
  8
DATA
  6
CONTINUOUS
 62
     7
 10
120.18446757368611
 20
816.43954551749005
 30
0.0
  0
VERTEX
  5
73D
  8
DATA
  6
CONTINUOUS
 62
     7
 10
120.15802416262829
 20
816.41429812590559
 30
0.0
  0
VERTEX
  5
73E
  8
DATA
  6
CONTINUOUS
 62
     7
 10
120.13137722427641
 20
816.38928251992115
 30
0.0
  0
VERTEX
  5
73F
  8
DATA
  6
CONTINUOUS
 62
     7
 10
120.1045267586305
 20
816.36449869953753
 30
0.0
  0
VERTEX
  5
740
  8
DATA
  6
CONTINUOUS
 62
     7
 10
120.0774727656905
 20
816.33994666475382
 30
0.0
  0
VERTEX
  5
741
  8
DATA
  6
CONTINUOUS
 62
     7
 10
120.0502152454564
 20
816.3156264155707
 30
0.0
  0
VERTEX
  5
742
  8
DATA
  6
CONTINUOUS
 62
     7
 10
120.02275419792841
 20
816.29153795198795
 30
0.0
  0
VERTEX
  5
743
  8
DATA
  6
CONTINUOUS
 62
     7
 10
119.9950896231062
 20
816.26768127400589
 30
0.0
  0
VERTEX
  5
744
  8
DATA
  6
CONTINUOUS
 62
     7
 10
119.96722152098999
 20
816.24405638162398
 30
0.0
  0
VERTEX
  5
745
  8
DATA
  6
CONTINUOUS
 62
     7
 10
119.9391498915797
 20
816.22066327484254
 30
0.0
  0
VERTEX
  5
746
  8
DATA
  6
CONTINUOUS
 62
     7
 10
119.91087473487519
 20
816.19750195366134
 30
0.0
  0
VERTEX
  5
747
  8
DATA
  6
CONTINUOUS
 62
     7
 10
119.88239605087669
 20
816.17457241808052
 30
0.0
  0
VERTEX
  5
748
  8
DATA
  6
CONTINUOUS
 62
     7
 10
119.8537138395843
 20
816.15187466810039
 30
0.0
  0
VERTEX
  5
749
  8
DATA
  6
CONTINUOUS
 62
     7
 10
119.82482810099761
 20
816.12940870372051
 30
0.0
  0
VERTEX
  5
74A
  8
DATA
  6
CONTINUOUS
 62
     7
 10
119.79573883511701
 20
816.10717452494123
 30
0.0
  0
VERTEX
  5
74B
  8
DATA
  6
CONTINUOUS
 62
     7
 10
119.7664460419423
 20
816.08517213176185
 30
0.0
  0
VERTEX
  5
74C
  8
DATA
  6
CONTINUOUS
 62
     7
 10
119.73694972147359
 20
816.0634015241834
 30
0.0
  0
VERTEX
  5
74D
  8
DATA
  6
CONTINUOUS
 62
     7
 10
119.70724987371069
 20
816.04186270220521
 30
0.0
  0
VERTEX
  5
74E
  8
DATA
  6
CONTINUOUS
 62
     7
 10
119.6773464986537
 20
816.02055566582703
 30
0.0
  0
VERTEX
  5
74F
  8
DATA
  6
CONTINUOUS
 62
     7
 10
119.6472395963026
 20
815.99948041504956
 30
0.0
  0
VERTEX
  5
750
  8
DATA
  6
CONTINUOUS
 62
     7
 10
119.6169291666576
 20
815.97863694987245
 30
0.0
  0
VERTEX
  5
751
  8
DATA
  6
CONTINUOUS
 62
     7
 10
119.5864152097184
 20
815.95802527029593
 30
0.0
  0
VERTEX
  5
752
  8
DATA
  6
CONTINUOUS
 62
     7
 10
119.5556977254853
 20
815.93764537631944
 30
0.0
  0
VERTEX
  5
753
  8
DATA
  6
CONTINUOUS
 62
     7
 10
119.52484122952509
 20
815.91753968765249
 30
0.0
  0
VERTEX
  5
754
  8
DATA
  6
CONTINUOUS
 62
     7
 10
119.4939102374048
 20
815.89775062400395
 30
0.0
  0
VERTEX
  5
755
  8
DATA
  6
CONTINUOUS
 62
     7
 10
119.4629047491246
 20
815.87827818537369
 30
0.0
  0
VERTEX
  5
756
  8
DATA
  6
CONTINUOUS
 62
     7
 10
119.43182476468439
 20
815.85912237176194
 30
0.0
  0
VERTEX
  5
757
  8
DATA
  6
CONTINUOUS
 62
     7
 10
119.4006702840842
 20
815.84028318316882
 30
0.0
  0
VERTEX
  5
758
  8
DATA
  6
CONTINUOUS
 62
     7
 10
119.369441307324
 20
815.82176061959376
 30
0.0
  0
VERTEX
  5
759
  8
DATA
  6
CONTINUOUS
 62
     7
 10
119.3381378344038
 20
815.8035546810371
 30
0.0
  0
VERTEX
  5
75A
  8
DATA
  6
CONTINUOUS
 62
     7
 10
119.3067598653235
 20
815.78566536749895
 30
0.0
  0
VERTEX
  5
75B
  8
DATA
  6
CONTINUOUS
 62
     7
 10
119.27530740008341
 20
815.76809267897875
 30
0.0
  0
VERTEX
  5
75C
  8
DATA
  6
CONTINUOUS
 62
     7
 10
119.2437804386832
 20
815.7508366154774
 30
0.0
  0
VERTEX
  5
75D
  8
DATA
  6
CONTINUOUS
 62
     7
 10
119.2121789811231
 20
815.73389717699433
 30
0.0
  0
VERTEX
  5
75E
  8
DATA
  6
CONTINUOUS
 62
     7
 10
119.18050302740291
 20
815.71727436352955
 30
0.0
  0
VERTEX
  5
75F
  8
DATA
  6
CONTINUOUS
 62
     7
 10
119.1487525775228
 20
815.70096817508295
 30
0.0
  0
VERTEX
  5
760
  8
DATA
  6
CONTINUOUS
 62
     7
 10
119.1169276314825
 20
815.68497861165486
 30
0.0
  0
VERTEX
  5
761
  8
DATA
  6
CONTINUOUS
 62
     7
 10
119.0850281892824
 20
815.6693056732455
 30
0.0
  0
VERTEX
  5
762
  8
DATA
  6
CONTINUOUS
 62
     7
 10
119.0530542509222
 20
815.65394935985432
 30
0.0
  0
VERTEX
  5
763
  8
DATA
  6
CONTINUOUS
 62
     7
 10
119.02100581640229
 20
815.6389096714812
 30
0.0
  0
VERTEX
  5
764
  8
DATA
  6
CONTINUOUS
 62
     7
 10
118.98888288572201
 20
815.62418660812659
 30
0.0
  0
VERTEX
  5
765
  8
DATA
  6
CONTINUOUS
 62
     7
 10
118.95668545888201
 20
815.60978016979084
 30
0.0
  0
VERTEX
  5
766
  8
DATA
  6
CONTINUOUS
 62
     7
 10
118.9244135358819
 20
815.5956903564728
 30
0.0
  0
VERTEX
  5
767
  8
DATA
  6
CONTINUOUS
 62
     7
 10
118.8920671167218
 20
815.58191716817339
 30
0.0
  0
VERTEX
  5
768
  8
DATA
  6
CONTINUOUS
 62
     7
 10
118.8596462014018
 20
815.56846060489249
 30
0.0
  0
VERTEX
  5
769
  8
DATA
  6
CONTINUOUS
 62
     7
 10
118.8271507899217
 20
815.55532066662988
 30
0.0
  0
VERTEX
  5
76A
  8
DATA
  6
CONTINUOUS
 62
     7
 10
118.79458088228159
 20
815.54249735338556
 30
0.0
  0
VERTEX
  5
76B
  8
DATA
  6
CONTINUOUS
 62
     7
 10
118.7619364784816
 20
815.52999066515986
 30
0.0
  0
VERTEX
  5
76C
  8
DATA
  6
CONTINUOUS
 62
     7
 10
118.7292175785214
 20
815.51780060195233
 30
0.0
  0
VERTEX
  5
76D
  8
DATA
  6
CONTINUOUS
 62
     7
 10
118.6964241824014
 20
815.5059271637632
 30
0.0
  0
VERTEX
  5
76E
  8
DATA
  6
CONTINUOUS
 62
     7
 10
118.66355629012141
 20
815.49437035059225
 30
0.0
  0
VERTEX
  5
76F
  8
DATA
  6
CONTINUOUS
 62
     7
 10
118.6306139016815
 20
815.48313016244015
 30
0.0
  0
VERTEX
  5
770
  8
DATA
  6
CONTINUOUS
 62
     7
 10
118.5975970170814
 20
815.47220659930633
 30
0.0
  0
VERTEX
  5
771
  8
DATA
  6
CONTINUOUS
 62
     7
 10
118.5645056363214
 20
815.46159966119035
 30
0.0
  0
VERTEX
  5
772
  8
DATA
  6
CONTINUOUS
 62
     7
 10
118.53133975940131
 20
815.4513093480931
 30
0.0
  0
VERTEX
  5
773
  8
DATA
  6
CONTINUOUS
 62
     7
 10
118.4980993863214
 20
815.44133566001415
 30
0.0
  0
VERTEX
  5
774
  8
DATA
  6
CONTINUOUS
 62
     7
 10
118.4647845170814
 20
815.43167859695393
 30
0.0
  0
VERTEX
  5
775
  8
DATA
  6
CONTINUOUS
 62
     7
 10
118.4313951516815
 20
815.42233815891154
 30
0.0
  0
VERTEX
  5
776
  8
DATA
  6
CONTINUOUS
 62
     7
 10
118.39793129012141
 20
815.41331434588801
 30
0.0
  0
VERTEX
  5
777
  8
DATA
  6
CONTINUOUS
 62
     7
 10
118.3643929324014
 20
815.40460715788265
 30
0.0
  0
VERTEX
  5
778
  8
DATA
  6
CONTINUOUS
 62
     7
 10
118.3307800785214
 20
815.39621659489592
 30
0.0
  0
VERTEX
  5
779
  8
DATA
  6
CONTINUOUS
 62
     7
 10
118.2970927284816
 20
815.38814265692702
 30
0.0
  0
VERTEX
  5
77A
  8
DATA
  6
CONTINUOUS
 62
     7
 10
118.26333088228159
 20
815.38038534397697
 30
0.0
  0
VERTEX
  5
77B
  8
DATA
  6
CONTINUOUS
 62
     7
 10
118.2294945399217
 20
815.37294465604509
 30
0.0
  0
VERTEX
  5
77C
  8
DATA
  6
CONTINUOUS
 62
     7
 10
118.1955837014018
 20
815.36582059313162
 30
0.0
  0
VERTEX
  5
77D
  8
DATA
  6
CONTINUOUS
 62
     7
 10
118.1615983667218
 20
815.35901315523643
 30
0.0
  0
VERTEX
  5
77E
  8
DATA
  6
CONTINUOUS
 62
     7
 10
118.1275385358819
 20
815.35252234235963
 30
0.0
  0
VERTEX
  5
77F
  8
DATA
  6
CONTINUOUS
 62
     7
 10
118.09340420888201
 20
815.34634815450136
 30
0.0
  0
VERTEX
  5
780
  8
DATA
  6
CONTINUOUS
 62
     7
 10
118.05919538572201
 20
815.34049059166136
 30
0.0
  0
VERTEX
  5
781
  8
DATA
  6
CONTINUOUS
 62
     7
 10
118.02491206640229
 20
815.33494965384
 30
0.0
  0
VERTEX
  5
782
  8
DATA
  6
CONTINUOUS
 62
     7
 10
117.9905542509223
 20
815.32972534103658
 30
0.0
  0
VERTEX
  5
783
  8
DATA
  6
CONTINUOUS
 62
     7
 10
117.9561219392824
 20
815.32481765325167
 30
0.0
  0
VERTEX
  5
784
  8
DATA
  6
CONTINUOUS
 62
     7
 10
117.9216151314825
 20
815.3202265904855
 30
0.0
  0
VERTEX
  5
785
  8
DATA
  6
CONTINUOUS
 62
     7
 10
117.8870338275228
 20
815.31595215273717
 30
0.0
  0
VERTEX
  5
786
  8
DATA
  6
CONTINUOUS
 62
     7
 10
117.85237802740281
 20
815.31199434000735
 30
0.0
  0
VERTEX
  5
787
  8
DATA
  6
CONTINUOUS
 62
     7
 10
117.8176477311231
 20
815.30835315229615
 30
0.0
  0
VERTEX
  5
788
  8
DATA
  6
CONTINUOUS
 62
     7
 10
117.7828429386832
 20
815.30502858960335
 30
0.0
  0
VERTEX
  5
789
  8
DATA
  6
CONTINUOUS
 62
     7
 10
117.74796365008341
 20
815.30202065192861
 30
0.0
  0
VERTEX
  5
78A
  8
DATA
  6
CONTINUOUS
 62
     7
 10
117.7130098653235
 20
815.2993293392725
 30
0.0
  0
VERTEX
  5
78B
  8
DATA
  6
CONTINUOUS
 62
     7
 10
117.6779815844038
 20
815.29695465163445
 30
0.0
  0
VERTEX
  5
78C
  8
DATA
  6
CONTINUOUS
 62
     7
 10
117.642878807324
 20
815.29489658901525
 30
0.0
  0
VERTEX
  5
78D
  8
DATA
  6
CONTINUOUS
 62
     7
 10
117.6077015340842
 20
815.29315515141411
 30
0.0
  0
VERTEX
  5
78E
  8
DATA
  6
CONTINUOUS
 62
     7
 10
117.57244976468439
 20
815.29173033883126
 30
0.0
  0
VERTEX
  5
78F
  8
DATA
  6
CONTINUOUS
 62
     7
 10
117.5371234991246
 20
815.29062215126692
 30
0.0
  0
VERTEX
  5
790
  8
DATA
  6
CONTINUOUS
 62
     7
 10
117.5017227374048
 20
815.2898305887212
 30
0.0
  0
VERTEX
  5
791
  8
DATA
  6
CONTINUOUS
 62
     7
 10
117.46624747952509
 20
815.28935565119366
 30
0.0
  0
VERTEX
  5
792
  8
DATA
  6
CONTINUOUS
 62
     7
 10
117.4306977254853
 20
815.28919733868452
 30
0.0
  0
VERTEX
  5
793
  8
DATA
  6
CONTINUOUS
 62
     7
 10
117.3951479714454
 20
815.28935565119366
 30
0.0
  0
VERTEX
  5
794
  8
DATA
  6
CONTINUOUS
 62
     7
 10
117.3596727135657
 20
815.2898305887212
 30
0.0
  0
VERTEX
  5
795
  8
DATA
  6
CONTINUOUS
 62
     7
 10
117.3242719518459
 20
815.29062215126692
 30
0.0
  0
VERTEX
  5
796
  8
DATA
  6
CONTINUOUS
 62
     7
 10
117.2889456862862
 20
815.29173033883126
 30
0.0
  0
VERTEX
  5
797
  8
DATA
  6
CONTINUOUS
 62
     7
 10
117.25369391688641
 20
815.29315515141411
 30
0.0
  0
VERTEX
  5
798
  8
DATA
  6
CONTINUOUS
 62
     7
 10
117.2185166436465
 20
815.29489658901525
 30
0.0
  0
VERTEX
  5
799
  8
DATA
  6
CONTINUOUS
 62
     7
 10
117.1834138665667
 20
815.29695465163445
 30
0.0
  0
VERTEX
  5
79A
  8
DATA
  6
CONTINUOUS
 62
     7
 10
117.14838558564701
 20
815.2993293392725
 30
0.0
  0
VERTEX
  5
79B
  8
DATA
  6
CONTINUOUS
 62
     7
 10
117.1134318008872
 20
815.30202065192861
 30
0.0
  0
VERTEX
  5
79C
  8
DATA
  6
CONTINUOUS
 62
     7
 10
117.0785525122874
 20
815.30502858960335
 30
0.0
  0
VERTEX
  5
79D
  8
DATA
  6
CONTINUOUS
 62
     7
 10
117.0437477198475
 20
815.30835315229615
 30
0.0
  0
VERTEX
  5
79E
  8
DATA
  6
CONTINUOUS
 62
     7
 10
117.0090174235677
 20
815.31199434000735
 30
0.0
  0
VERTEX
  5
79F
  8
DATA
  6
CONTINUOUS
 62
     7
 10
116.97436162344771
 20
815.31595215273717
 30
0.0
  0
VERTEX
  5
7A0
  8
DATA
  6
CONTINUOUS
 62
     7
 10
116.93978031948799
 20
815.3202265904855
 30
0.0
  0
VERTEX
  5
7A1
  8
DATA
  6
CONTINUOUS
 62
     7
 10
116.90527351168809
 20
815.32481765325167
 30
0.0
  0
VERTEX
  5
7A2
  8
DATA
  6
CONTINUOUS
 62
     7
 10
116.8708412000482
 20
815.32972534103658
 30
0.0
  0
VERTEX
  5
7A3
  8
DATA
  6
CONTINUOUS
 62
     7
 10
116.8364833845683
 20
815.33494965384
 30
0.0
  0
VERTEX
  5
7A4
  8
DATA
  6
CONTINUOUS
 62
     7
 10
116.8022000652485
 20
815.34049059166136
 30
0.0
  0
VERTEX
  5
7A5
  8
DATA
  6
CONTINUOUS
 62
     7
 10
116.7679912420885
 20
815.34634815450136
 30
0.0
  0
VERTEX
  5
7A6
  8
DATA
  6
CONTINUOUS
 62
     7
 10
116.73385691508859
 20
815.35252234235963
 30
0.0
  0
VERTEX
  5
7A7
  8
DATA
  6
CONTINUOUS
 62
     7
 10
116.6997970842488
 20
815.35901315523643
 30
0.0
  0
VERTEX
  5
7A8
  8
DATA
  6
CONTINUOUS
 62
     7
 10
116.6658117495687
 20
815.36582059313162
 30
0.0
  0
VERTEX
  5
7A9
  8
DATA
  6
CONTINUOUS
 62
     7
 10
116.6319009110488
 20
815.37294465604509
 30
0.0
  0
VERTEX
  5
7AA
  8
DATA
  6
CONTINUOUS
 62
     7
 10
116.5980645686889
 20
815.38038534397697
 30
0.0
  0
VERTEX
  5
7AB
  8
DATA
  6
CONTINUOUS
 62
     7
 10
116.5643027224889
 20
815.38814265692702
 30
0.0
  0
VERTEX
  5
7AC
  8
DATA
  6
CONTINUOUS
 62
     7
 10
116.53061537244911
 20
815.39621659489592
 30
0.0
  0
VERTEX
  5
7AD
  8
DATA
  6
CONTINUOUS
 62
     7
 10
116.4970025185691
 20
815.40460715788265
 30
0.0
  0
VERTEX
  5
7AE
  8
DATA
  6
CONTINUOUS
 62
     7
 10
116.4634641608492
 20
815.41331434588801
 30
0.0
  0
VERTEX
  5
7AF
  8
DATA
  6
CONTINUOUS
 62
     7
 10
116.43000029928901
 20
815.42233815891154
 30
0.0
  0
VERTEX
  5
7B0
  8
DATA
  6
CONTINUOUS
 62
     7
 10
116.39661093388909
 20
815.43167859695393
 30
0.0
  0
VERTEX
  5
7B1
  8
DATA
  6
CONTINUOUS
 62
     7
 10
116.36329606464911
 20
815.44133566001415
 30
0.0
  0
VERTEX
  5
7B2
  8
DATA
  6
CONTINUOUS
 62
     7
 10
116.3300556915692
 20
815.4513093480931
 30
0.0
  0
VERTEX
  5
7B3
  8
DATA
  6
CONTINUOUS
 62
     7
 10
116.29688981464911
 20
815.46159966119035
 30
0.0
  0
VERTEX
  5
7B4
  8
DATA
  6
CONTINUOUS
 62
     7
 10
116.26379843388921
 20
815.47220659930633
 30
0.0
  0
VERTEX
  5
7B5
  8
DATA
  6
CONTINUOUS
 62
     7
 10
116.23078154928901
 20
815.48313016244015
 30
0.0
  0
VERTEX
  5
7B6
  8
DATA
  6
CONTINUOUS
 62
     7
 10
116.1978391608492
 20
815.49437035059225
 30
0.0
  0
VERTEX
  5
7B7
  8
DATA
  6
CONTINUOUS
 62
     7
 10
116.1649712685691
 20
815.5059271637632
 30
0.0
  0
VERTEX
  5
7B8
  8
DATA
  6
CONTINUOUS
 62
     7
 10
116.13217787244911
 20
815.51780060195233
 30
0.0
  0
VERTEX
  5
7B9
  8
DATA
  6
CONTINUOUS
 62
     7
 10
116.0994589724889
 20
815.52999066515986
 30
0.0
  0
VERTEX
  5
7BA
  8
DATA
  6
CONTINUOUS
 62
     7
 10
116.066814568689
 20
815.54249735338556
 30
0.0
  0
VERTEX
  5
7BB
  8
DATA
  6
CONTINUOUS
 62
     7
 10
116.0342446610489
 20
815.55532066662988
 30
0.0
  0
VERTEX
  5
7BC
  8
DATA
  6
CONTINUOUS
 62
     7
 10
116.0017492495687
 20
815.56846060489249
 30
0.0
  0
VERTEX
  5
7BD
  8
DATA
  6
CONTINUOUS
 62
     7
 10
115.9693283342488
 20
815.58191716817339
 30
0.0
  0
VERTEX
  5
7BE
  8
DATA
  6
CONTINUOUS
 62
     7
 10
115.93698191508859
 20
815.5956903564728
 30
0.0
  0
VERTEX
  5
7BF
  8
DATA
  6
CONTINUOUS
 62
     7
 10
115.9047099920885
 20
815.60978016979084
 30
0.0
  0
VERTEX
  5
7C0
  8
DATA
  6
CONTINUOUS
 62
     7
 10
115.8725125652485
 20
815.62418660812659
 30
0.0
  0
VERTEX
  5
7C1
  8
DATA
  6
CONTINUOUS
 62
     7
 10
115.8403896345683
 20
815.6389096714812
 30
0.0
  0
VERTEX
  5
7C2
  8
DATA
  6
CONTINUOUS
 62
     7
 10
115.8083412000483
 20
815.65394935985432
 30
0.0
  0
VERTEX
  5
7C3
  8
DATA
  6
CONTINUOUS
 62
     7
 10
115.77636726168809
 20
815.6693056732455
 30
0.0
  0
VERTEX
  5
7C4
  8
DATA
  6
CONTINUOUS
 62
     7
 10
115.74446781948799
 20
815.68497861165486
 30
0.0
  0
VERTEX
  5
7C5
  8
DATA
  6
CONTINUOUS
 62
     7
 10
115.71264287344771
 20
815.70096817508295
 30
0.0
  0
VERTEX
  5
7C6
  8
DATA
  6
CONTINUOUS
 62
     7
 10
115.6808924235677
 20
815.71727436352955
 30
0.0
  0
VERTEX
  5
7C7
  8
DATA
  6
CONTINUOUS
 62
     7
 10
115.6492164698475
 20
815.73389717699433
 30
0.0
  0
VERTEX
  5
7C8
  8
DATA
  6
CONTINUOUS
 62
     7
 10
115.6176150122874
 20
815.7508366154774
 30
0.0
  0
VERTEX
  5
7C9
  8
DATA
  6
CONTINUOUS
 62
     7
 10
115.5860880508871
 20
815.76809267897875
 30
0.0
  0
VERTEX
  5
7CA
  8
DATA
  6
CONTINUOUS
 62
     7
 10
115.55463558564701
 20
815.78566536749895
 30
0.0
  0
VERTEX
  5
7CB
  8
DATA
  6
CONTINUOUS
 62
     7
 10
115.5232576165667
 20
815.8035546810371
 30
0.0
  0
VERTEX
  5
7CC
  8
DATA
  6
CONTINUOUS
 62
     7
 10
115.49195414364659
 20
815.82176061959376
 30
0.0
  0
VERTEX
  5
7CD
  8
DATA
  6
CONTINUOUS
 62
     7
 10
115.46072516688641
 20
815.84028318316882
 30
0.0
  0
VERTEX
  5
7CE
  8
DATA
  6
CONTINUOUS
 62
     7
 10
115.4295706862862
 20
815.85912237176194
 30
0.0
  0
VERTEX
  5
7CF
  8
DATA
  6
CONTINUOUS
 62
     7
 10
115.3984907018459
 20
815.87827818537369
 30
0.0
  0
VERTEX
  5
7D0
  8
DATA
  6
CONTINUOUS
 62
     7
 10
115.3674852135657
 20
815.89775062400395
 30
0.0
  0
VERTEX
  5
7D1
  8
DATA
  6
CONTINUOUS
 62
     7
 10
115.3365542214454
 20
815.91753968765249
 30
0.0
  0
VERTEX
  5
7D2
  8
DATA
  6
CONTINUOUS
 62
     7
 10
115.3056977254853
 20
815.93764537631944
 30
0.0
  0
VERTEX
  5
7D3
  8
DATA
  6
CONTINUOUS
 62
     7
 10
115.27498024125209
 20
815.95802527029593
 30
0.0
  0
VERTEX
  5
7D4
  8
DATA
  6
CONTINUOUS
 62
     7
 10
115.24446628431291
 20
815.97863694987245
 30
0.0
  0
VERTEX
  5
7D5
  8
DATA
  6
CONTINUOUS
 62
     7
 10
115.21415585466799
 20
815.99948041504956
 30
0.0
  0
VERTEX
  5
7D6
  8
DATA
  6
CONTINUOUS
 62
     7
 10
115.1840489523168
 20
816.02055566582703
 30
0.0
  0
VERTEX
  5
7D7
  8
DATA
  6
CONTINUOUS
 62
     7
 10
115.1541455772599
 20
816.04186270220521
 30
0.0
  0
VERTEX
  5
7D8
  8
DATA
  6
CONTINUOUS
 62
     7
 10
115.124445729497
 20
816.0634015241834
 30
0.0
  0
VERTEX
  5
7D9
  8
DATA
  6
CONTINUOUS
 62
     7
 10
115.0949494090282
 20
816.08517213176185
 30
0.0
  0
VERTEX
  5
7DA
  8
DATA
  6
CONTINUOUS
 62
     7
 10
115.0656566158535
 20
816.10717452494123
 30
0.0
  0
VERTEX
  5
7DB
  8
DATA
  6
CONTINUOUS
 62
     7
 10
115.036567349973
 20
816.12940870372051
 30
0.0
  0
VERTEX
  5
7DC
  8
DATA
  6
CONTINUOUS
 62
     7
 10
115.0076816113862
 20
816.15187466810039
 30
0.0
  0
VERTEX
  5
7DD
  8
DATA
  6
CONTINUOUS
 62
     7
 10
114.9789994000938
 20
816.17457241808052
 30
0.0
  0
VERTEX
  5
7DE
  8
DATA
  6
CONTINUOUS
 62
     7
 10
114.9505207160953
 20
816.19750195366134
 30
0.0
  0
VERTEX
  5
7DF
  8
DATA
  6
CONTINUOUS
 62
     7
 10
114.9222455593908
 20
816.22066327484254
 30
0.0
  0
VERTEX
  5
7E0
  8
DATA
  6
CONTINUOUS
 62
     7
 10
114.8941739299805
 20
816.24405638162398
 30
0.0
  0
VERTEX
  5
7E1
  8
DATA
  6
CONTINUOUS
 62
     7
 10
114.86630582786439
 20
816.26768127400589
 30
0.0
  0
VERTEX
  5
7E2
  8
DATA
  6
CONTINUOUS
 62
     7
 10
114.8386412530421
 20
816.29153795198795
 30
0.0
  0
VERTEX
  5
7E3
  8
DATA
  6
CONTINUOUS
 62
     7
 10
114.81118020551411
 20
816.3156264155707
 30
0.0
  0
VERTEX
  5
7E4
  8
DATA
  6
CONTINUOUS
 62
     7
 10
114.78392268528
 20
816.33994666475382
 30
0.0
  0
VERTEX
  5
7E5
  8
DATA
  6
CONTINUOUS
 62
     7
 10
114.75686869234001
 20
816.36449869953753
 30
0.0
  0
VERTEX
  5
7E6
  8
DATA
  6
CONTINUOUS
 62
     7
 10
114.7300182266941
 20
816.38928251992115
 30
0.0
  0
VERTEX
  5
7E7
  8
DATA
  6
CONTINUOUS
 62
     7
 10
114.7033712883423
 20
816.41429812590559
 30
0.0
  0
VERTEX
  5
7E8
  8
DATA
  6
CONTINUOUS
 62
     7
 10
114.6769278772845
 20
816.43954551749005
 30
0.0
  0
VERTEX
  5
7E9
  8
DATA
  6
CONTINUOUS
 62
     7
 10
114.65068799352071
 20
816.46502469467544
 30
0.0
  0
VERTEX
  5
7EA
  8
DATA
  6
CONTINUOUS
 62
     7
 10
114.6246516370511
 20
816.4907356574605
 30
0.0
  0
VERTEX
  5
7EB
  8
DATA
  6
CONTINUOUS
 62
     7
 10
114.5988188078755
 20
816.51667840584651
 30
0.0
  0
VERTEX
  5
7EC
  8
DATA
  6
CONTINUOUS
 62
     7
 10
114.57318950599389
 20
816.54285293983276
 30
0.0
  0
VERTEX
  5
7ED
  8
DATA
  6
CONTINUOUS
 62
     7
 10
114.5477637314066
 20
816.56925925941948
 30
0.0
  0
VERTEX
  5
7EE
  8
DATA
  6
CONTINUOUS
 62
     7
 10
114.52254148411311
 20
816.5958973646068
 30
0.0
  0
VERTEX
  5
7EF
  8
DATA
  6
CONTINUOUS
 62
     7
 10
114.4975227641139
 20
816.62276725539402
 30
0.0
  0
VERTEX
  5
7F0
  8
DATA
  6
CONTINUOUS
 62
     7
 10
114.47270757140861
 20
816.64986893178195
 30
0.0
  0
VERTEX
  5
7F1
  8
DATA
  6
CONTINUOUS
 62
     7
 10
114.4480959059975
 20
816.67720239377024
 30
0.0
  0
VERTEX
  5
7F2
  8
DATA
  6
CONTINUOUS
 62
     7
 10
114.42368776788039
 20
816.70476764135879
 30
0.0
  0
VERTEX
  5
7F3
  8
DATA
  6
CONTINUOUS
 62
     7
 10
114.3994831570573
 20
816.73256467454803
 30
0.0
  0
VERTEX
  5
7F4
  8
DATA
  6
CONTINUOUS
 62
     7
 10
114.3754820735285
 20
816.76059349333752
 30
0.0
  0
VERTEX
  5
7F5
  8
DATA
  6
CONTINUOUS
 62
     7
 10
114.35168451729361
 20
816.78885409772715
 30
0.0
  0
VERTEX
  5
7F6
  8
DATA
  6
CONTINUOUS
 62
     7
 10
114.3280904883528
 20
816.8173464877176
 30
0.0
  0
VERTEX
  5
7F7
  8
DATA
  6
CONTINUOUS
 62
     7
 10
114.304699986706
 20
816.84607066330796
 30
0.0
  0
VERTEX
  5
7F8
  8
DATA
  6
CONTINUOUS
 62
     7
 10
114.2815130123533
 20
816.87502662449936
 30
0.0
  0
VERTEX
  5
7F9
  8
DATA
  6
CONTINUOUS
 62
     7
 10
114.25852956529479
 20
816.90421437129089
 30
0.0
  0
VERTEX
  5
7FA
  8
DATA
  6
CONTINUOUS
 62
     7
 10
114.23574964553021
 20
816.93363390368256
 30
0.0
  0
VERTEX
  5
7FB
  8
DATA
  6
CONTINUOUS
 62
     7
 10
114.21317325305969
 20
816.96328522167482
 30
0.0
  0
VERTEX
  5
7FC
  8
DATA
  6
CONTINUOUS
 62
     7
 10
114.1908003878832
 20
816.99316832526745
 30
0.0
  0
VERTEX
  5
7FD
  8
DATA
  6
CONTINUOUS
 62
     7
 10
114.1686310500008
 20
817.02328321446043
 30
0.0
  0
VERTEX
  5
7FE
  8
DATA
  6
CONTINUOUS
 62
     7
 10
114.1466652394126
 20
817.05362988925413
 30
0.0
  0
VERTEX
  5
7FF
  8
DATA
  6
CONTINUOUS
 62
     7
 10
114.1249029561185
 20
817.08420834964772
 30
0.0
  0
VERTEX
  5
800
  8
DATA
  6
CONTINUOUS
 62
     7
 10
114.1033442001182
 20
817.11501859564203
 30
0.0
  0
VERTEX
  5
801
  8
DATA
  6
CONTINUOUS
 62
     7
 10
114.0819889714123
 20
817.14606062723681
 30
0.0
  0
VERTEX
  5
802
  8
DATA
  6
CONTINUOUS
 62
     7
 10
114.06083727000021
 20
817.17733444443195
 30
0.0
  0
VERTEX
  5
803
  8
DATA
  6
CONTINUOUS
 62
     7
 10
114.0398890958822
 20
817.20884004722723
 30
0.0
  0
VERTEX
  5
804
  8
DATA
  6
CONTINUOUS
 62
     7
 10
114.0191444490583
 20
817.24057743562332
 30
0.0
  0
VERTEX
  5
805
  8
DATA
  6
CONTINUOUS
 62
     7
 10
113.99860332952861
 20
817.27254660961944
 30
0.0
  0
VERTEX
  5
806
  8
DATA
  6
CONTINUOUS
 62
     7
 10
113.9782657372929
 20
817.30474756921592
 30
0.0
  0
VERTEX
  5
807
  8
DATA
  6
CONTINUOUS
 62
     7
 10
113.9581316723513
 20
817.33718031441322
 30
0.0
  0
VERTEX
  5
808
  8
DATA
  6
CONTINUOUS
 62
     7
 10
113.9382011347036
 20
817.36984484521054
 30
0.0
  0
VERTEX
  5
809
  8
DATA
  6
CONTINUOUS
 62
     7
 10
113.9184741243501
 20
817.40274116160845
 30
0.0
  0
VERTEX
  5
80A
  8
DATA
  6
CONTINUOUS
 62
     7
 10
113.8989506412906
 20
817.43586926360649
 30
0.0
  0
VERTEX
  5
80B
  8
DATA
  6
CONTINUOUS
 62
     7
 10
113.8796306855251
 20
817.46922915120524
 30
0.0
  0
VERTEX
  5
80C
  8
DATA
  6
CONTINUOUS
 62
     7
 10
113.86051425705379
 20
817.50282082440413
 30
0.0
  0
VERTEX
  5
80D
  8
DATA
  6
CONTINUOUS
 62
     7
 10
113.8416013558767
 20
817.5366442832036
 30
0.0
  0
VERTEX
  5
80E
  8
DATA
  6
CONTINUOUS
 62
     7
 10
113.82289198199349
 20
817.57069952760332
 30
0.0
  0
VERTEX
  5
80F
  8
DATA
  6
CONTINUOUS
 62
     7
 10
113.8043861354044
 20
817.60498655760364
 30
0.0
  0
VERTEX
  5
810
  8
DATA
  6
CONTINUOUS
 62
     7
 10
113.7860838161093
 20
817.63950537320454
 30
0.0
  0
VERTEX
  5
811
  8
DATA
  6
CONTINUOUS
 62
     7
 10
113.7679850241083
 20
817.67425597440536
 30
0.0
  0
VERTEX
  5
812
  8
DATA
  6
CONTINUOUS
 62
     7
 10
113.75008975940131
 20
817.70923836120676
 30
0.0
  0
VERTEX
  5
813
  8
DATA
  6
CONTINUOUS
 62
     7
 10
113.73243527006839
 20
817.74437906051742
 30
0.0
  0
VERTEX
  5
814
  8
DATA
  6
CONTINUOUS
 62
     7
 10
113.7150588041896
 20
817.77960459924623
 30
0.0
  0
VERTEX
  5
815
  8
DATA
  6
CONTINUOUS
 62
     7
 10
113.6979603617649
 20
817.81491497739262
 30
0.0
  0
VERTEX
  5
816
  8
DATA
  6
CONTINUOUS
 62
     7
 10
113.6811399427943
 20
817.85031019495705
 30
0.0
  0
VERTEX
  5
817
  8
DATA
  6
CONTINUOUS
 62
     7
 10
113.66459754727769
 20
817.88579025193962
 30
0.0
  0
VERTEX
  5
818
  8
DATA
  6
CONTINUOUS
 62
     7
 10
113.6483331752151
 20
817.92135514834013
 30
0.0
  0
VERTEX
  5
819
  8
DATA
  6
CONTINUOUS
 62
     7
 10
113.63234682660659
 20
817.95700488415878
 30
0.0
  0
VERTEX
  5
81A
  8
DATA
  6
CONTINUOUS
 62
     7
 10
113.6166385014522
 20
817.99273945939535
 30
0.0
  0
VERTEX
  5
81B
  8
DATA
  6
CONTINUOUS
 62
     7
 10
113.60120819975189
 20
818.02855887404974
 30
0.0
  0
VERTEX
  5
81C
  8
DATA
  6
CONTINUOUS
 62
     7
 10
113.5860559215056
 20
818.06446312812204
 30
0.0
  0
VERTEX
  5
81D
  8
DATA
  6
CONTINUOUS
 62
     7
 10
113.5711816667133
 20
818.10045222161239
 30
0.0
  0
VERTEX
  5
81E
  8
DATA
  6
CONTINUOUS
 62
     7
 10
113.5565854353751
 20
818.13652615452088
 30
0.0
  0
VERTEX
  5
81F
  8
DATA
  6
CONTINUOUS
 62
     7
 10
113.542267227491
 20
818.17268492684696
 30
0.0
  0
VERTEX
  5
820
  8
DATA
  6
CONTINUOUS
 62
     7
 10
113.52822704306089
 20
818.20892853859129
 30
0.0
  0
VERTEX
  5
821
  8
DATA
  6
CONTINUOUS
 62
     7
 10
113.51446488208499
 20
818.24525698975378
 30
0.0
  0
VERTEX
  5
822
  8
DATA
  6
CONTINUOUS
 62
     7
 10
113.50098074456299
 20
818.28167028033408
 30
0.0
  0
VERTEX
  5
823
  8
DATA
  6
CONTINUOUS
 62
     7
 10
113.4877746304952
 20
818.31816841033265
 30
0.0
  0
VERTEX
  5
824
  8
DATA
  6
CONTINUOUS
 62
     7
 10
113.4748465398814
 20
818.35475137974868
 30
0.0
  0
VERTEX
  5
825
  8
DATA
  6
CONTINUOUS
 62
     7
 10
113.4621964727216
 20
818.39141918858274
 30
0.0
  0
VERTEX
  5
826
  8
DATA
  6
CONTINUOUS
 62
     7
 10
113.44982442901591
 20
818.42817183683508
 30
0.0
  0
VERTEX
  5
827
  8
DATA
  6
CONTINUOUS
 62
     7
 10
113.4377304087643
 20
818.46500932450533
 30
0.0
  0
VERTEX
  5
828
  8
DATA
  6
CONTINUOUS
 62
     7
 10
113.4259144119667
 20
818.50193165159317
 30
0.0
  0
VERTEX
  5
829
  8
DATA
  6
CONTINUOUS
 62
     7
 10
113.41437643862319
 20
818.5389388180995
 30
0.0
  0
VERTEX
  5
82A
  8
DATA
  6
CONTINUOUS
 62
     7
 10
113.4031164887338
 20
818.57603082402375
 30
0.0
  0
VERTEX
  5
82B
  8
DATA
  6
CONTINUOUS
 62
     7
 10
113.3921345622983
 20
818.61320766936558
 30
0.0
  0
VERTEX
  5
82C
  8
DATA
  6
CONTINUOUS
 62
     7
 10
113.38143065931691
 20
818.65046935412568
 30
0.0
  0
VERTEX
  5
82D
  8
DATA
  6
CONTINUOUS
 62
     7
 10
113.3710047797897
 20
818.68781587830381
 30
0.0
  0
VERTEX
  5
82E
  8
DATA
  6
CONTINUOUS
 62
     7
 10
113.3608569237166
 20
818.72524724189952
 30
0.0
  0
VERTEX
  5
82F
  8
DATA
  6
CONTINUOUS
 62
     7
 10
113.35098709109749
 20
818.76276344491384
 30
0.0
  0
VERTEX
  5
830
  8
DATA
  6
CONTINUOUS
 62
     7
 10
113.34139528193229
 20
818.80036448734575
 30
0.0
  0
VERTEX
  5
831
  8
DATA
  6
CONTINUOUS
 62
     7
 10
113.33208149622131
 20
818.83805036919557
 30
0.0
  0
VERTEX
  5
832
  8
DATA
  6
CONTINUOUS
 62
     7
 10
113.32304573396431
 20
818.87582109046355
 30
0.0
  0
VERTEX
  5
833
  8
DATA
  6
CONTINUOUS
 62
     7
 10
113.31428799516139
 20
818.91367665114933
 30
0.0
  0
VERTEX
  5
834
  8
DATA
  6
CONTINUOUS
 62
     7
 10
113.3058082798125
 20
818.95161705125338
 30
0.0
  0
VERTEX
  5
835
  8
DATA
  6
CONTINUOUS
 62
     7
 10
113.2976065879177
 20
818.98964229077535
 30
0.0
  0
VERTEX
  5
836
  8
DATA
  6
CONTINUOUS
 62
     7
 10
113.289682919477
 20
819.0277523697149
 30
0.0
  0
VERTEX
  5
837
  8
DATA
  6
CONTINUOUS
 62
     7
 10
113.28203727449041
 20
819.06594728807295
 30
0.0
  0
VERTEX
  5
838
  8
DATA
  6
CONTINUOUS
 62
     7
 10
113.2746696529578
 20
819.10422704584869
 30
0.0
  0
VERTEX
  5
839
  8
DATA
  6
CONTINUOUS
 62
     7
 10
113.2675800548792
 20
819.14259164304246
 30
0.0
  0
VERTEX
  5
83A
  8
DATA
  6
CONTINUOUS
 62
     7
 10
113.2607684802547
 20
819.18104107965405
 30
0.0
  0
VERTEX
  5
83B
  8
DATA
  6
CONTINUOUS
 62
     7
 10
113.2542349290843
 20
819.2195753556839
 30
0.0
  0
VERTEX
  5
83C
  8
DATA
  6
CONTINUOUS
 62
     7
 10
113.2479794013679
 20
819.25819447113145
 30
0.0
  0
VERTEX
  5
83D
  8
DATA
  6
CONTINUOUS
 62
     7
 10
113.2420018971056
 20
819.29689842599714
 30
0.0
  0
VERTEX
  5
83E
  8
DATA
  6
CONTINUOUS
 62
     7
 10
113.23630241629731
 20
819.33568722028099
 30
0.0
  0
VERTEX
  5
83F
  8
DATA
  6
CONTINUOUS
 62
     7
 10
113.2308809589432
 20
819.37456085398242
 30
0.0
  0
VERTEX
  5
840
  8
DATA
  6
CONTINUOUS
 62
     7
 10
113.2257375250431
 20
819.41351932710211
 30
0.0
  0
VERTEX
  5
841
  8
DATA
  6
CONTINUOUS
 62
     7
 10
113.2208721145971
 20
819.45256263963961
 30
0.0
  0
VERTEX
  5
842
  8
DATA
  6
CONTINUOUS
 62
     7
 10
113.216284727605
 20
819.49169079159526
 30
0.0
  0
VERTEX
  5
843
  8
DATA
  6
CONTINUOUS
 62
     7
 10
113.211975364067
 20
819.53090378296872
 30
0.0
  0
VERTEX
  5
844
  8
DATA
  6
CONTINUOUS
 62
     7
 10
113.2079440239831
 20
819.57020161376033
 30
0.0
  0
VERTEX
  5
845
  8
DATA
  6
CONTINUOUS
 62
     7
 10
113.2041907073534
 20
819.60958428396975
 30
0.0
  0
VERTEX
  5
846
  8
DATA
  6
CONTINUOUS
 62
     7
 10
113.20071541417769
 20
819.64905179359721
 30
0.0
  0
VERTEX
  5
847
  8
DATA
  6
CONTINUOUS
 62
     7
 10
113.197518144456
 20
819.6886041426427
 30
0.0
  0
VERTEX
  5
848
  8
DATA
  6
CONTINUOUS
 62
     7
 10
113.1945988981883
 20
819.72824133110635
 30
0.0
  0
VERTEX
  5
849
  8
DATA
  6
CONTINUOUS
 62
     7
 10
113.19195767537479
 20
819.76796335898757
 30
0.0
  0
VERTEX
  5
84A
  8
DATA
  6
CONTINUOUS
 62
     7
 10
113.1895944760152
 20
819.80777022628695
 30
0.0
  0
VERTEX
  5
84B
  8
DATA
  6
CONTINUOUS
 62
     7
 10
113.1875093001097
 20
819.84766193300425
 30
0.0
  0
VERTEX
  5
84C
  8
DATA
  6
CONTINUOUS
 62
     7
 10
113.1857021476583
 20
819.8876384791397
 30
0.0
  0
VERTEX
  5
84D
  8
DATA
  6
CONTINUOUS
 62
     7
 10
113.184173018661
 20
819.92769986469295
 30
0.0
  0
VERTEX
  5
84E
  8
DATA
  6
CONTINUOUS
 62
     7
 10
113.1829219131177
 20
819.96784608966425
 30
0.0
  0
VERTEX
  5
84F
  8
DATA
  6
CONTINUOUS
 62
     7
 10
113.18194883102851
 20
820.00807715405335
 30
0.0
  0
VERTEX
  5
850
  8
DATA
  6
CONTINUOUS
 62
     7
 10
113.1812537723933
 20
820.04839305786084
 30
0.0
  0
VERTEX
  5
851
  8
DATA
  6
CONTINUOUS
 62
     7
 10
113.1808367372123
 20
820.08879380108613
 30
0.0
  0
VERTEX
  5
852
  8
DATA
  6
CONTINUOUS
 62
     7
 10
113.1806977254853
 20
820.12927938372934
 30
0.0
  0
VERTEX
  5
853
  8
DATA
  6
CONTINUOUS
 62
     7
 10
113.1808367372123
 20
820.16976496637244
 30
0.0
  0
VERTEX
  5
854
  8
DATA
  6
CONTINUOUS
 62
     7
 10
113.1812537723933
 20
820.21016570959762
 30
0.0
  0
VERTEX
  5
855
  8
DATA
  6
CONTINUOUS
 62
     7
 10
113.18194883102851
 20
820.25048161340499
 30
0.0
  0
VERTEX
  5
856
  8
DATA
  6
CONTINUOUS
 62
     7
 10
113.1829219131177
 20
820.2907126777942
 30
0.0
  0
VERTEX
  5
857
  8
DATA
  6
CONTINUOUS
 62
     7
 10
113.184173018661
 20
820.33085890276539
 30
0.0
  0
VERTEX
  5
858
  8
DATA
  6
CONTINUOUS
 62
     7
 10
113.1857021476583
 20
820.37092028831864
 30
0.0
  0
VERTEX
  5
859
  8
DATA
  6
CONTINUOUS
 62
     7
 10
113.1875093001097
 20
820.41089683445421
 30
0.0
  0
VERTEX
  5
85A
  8
DATA
  6
CONTINUOUS
 62
     7
 10
113.1895944760152
 20
820.45078854117162
 30
0.0
  0
VERTEX
  5
85B
  8
DATA
  6
CONTINUOUS
 62
     7
 10
113.19195767537479
 20
820.49059540847077
 30
0.0
  0
VERTEX
  5
85C
  8
DATA
  6
CONTINUOUS
 62
     7
 10
113.1945988981883
 20
820.53031743635233
 30
0.0
  0
VERTEX
  5
85D
  8
DATA
  6
CONTINUOUS
 62
     7
 10
113.197518144456
 20
820.56995462481575
 30
0.0
  0
VERTEX
  5
85E
  8
DATA
  6
CONTINUOUS
 62
     7
 10
113.20071541417769
 20
820.60950697386102
 30
0.0
  0
VERTEX
  5
85F
  8
DATA
  6
CONTINUOUS
 62
     7
 10
113.2041907073534
 20
820.64897448348881
 30
0.0
  0
VERTEX
  5
860
  8
DATA
  6
CONTINUOUS
 62
     7
 10
113.2079440239831
 20
820.68835715369801
 30
0.0
  0
VERTEX
  5
861
  8
DATA
  6
CONTINUOUS
 62
     7
 10
113.211975364067
 20
820.72765498448962
 30
0.0
  0
VERTEX
  5
862
  8
DATA
  6
CONTINUOUS
 62
     7
 10
113.216284727605
 20
820.76686797586308
 30
0.0
  0
VERTEX
  5
863
  8
DATA
  6
CONTINUOUS
 62
     7
 10
113.2208721145971
 20
820.80599612781884
 30
0.0
  0
VERTEX
  5
864
  8
DATA
  6
CONTINUOUS
 62
     7
 10
113.2257375250431
 20
820.84503944035635
 30
0.0
  0
VERTEX
  5
865
  8
DATA
  6
CONTINUOUS
 62
     7
 10
113.2308809589432
 20
820.88399791347581
 30
0.0
  0
VERTEX
  5
866
  8
DATA
  6
CONTINUOUS
 62
     7
 10
113.23630241629731
 20
820.92287154717746
 30
0.0
  0
VERTEX
  5
867
  8
DATA
  6
CONTINUOUS
 62
     7
 10
113.2420018971056
 20
820.9616603414612
 30
0.0
  0
VERTEX
  5
868
  8
DATA
  6
CONTINUOUS
 62
     7
 10
113.2479794013679
 20
821.00036429632678
 30
0.0
  0
VERTEX
  5
869
  8
DATA
  6
CONTINUOUS
 62
     7
 10
113.2542349290843
 20
821.03898341177444
 30
0.0
  0
VERTEX
  5
86A
  8
DATA
  6
CONTINUOUS
 62
     7
 10
113.2607684802547
 20
821.0775176878044
 30
0.0
  0
VERTEX
  5
86B
  8
DATA
  6
CONTINUOUS
 62
     7
 10
113.2675800548792
 20
821.11596712441622
 30
0.0
  0
VERTEX
  5
86C
  8
DATA
  6
CONTINUOUS
 62
     7
 10
113.2746696529578
 20
821.15433172160965
 30
0.0
  0
VERTEX
  5
86D
  8
DATA
  6
CONTINUOUS
 62
     7
 10
113.28203727449041
 20
821.19261147938585
 30
0.0
  0
VERTEX
  5
86E
  8
DATA
  6
CONTINUOUS
 62
     7
 10
113.289682919477
 20
821.23080639774332
 30
0.0
  0
VERTEX
  5
86F
  8
DATA
  6
CONTINUOUS
 62
     7
 10
113.2976065879177
 20
821.26891647668344
 30
0.0
  0
VERTEX
  5
870
  8
DATA
  6
CONTINUOUS
 62
     7
 10
113.3058082798125
 20
821.3069417162053
 30
0.0
  0
VERTEX
  5
871
  8
DATA
  6
CONTINUOUS
 62
     7
 10
113.31428799516139
 20
821.34488211630901
 30
0.0
  0
VERTEX
  5
872
  8
DATA
  6
CONTINUOUS
 62
     7
 10
113.32304573396431
 20
821.38273767699479
 30
0.0
  0
VERTEX
  5
873
  8
DATA
  6
CONTINUOUS
 62
     7
 10
113.33208149622131
 20
821.42050839826277
 30
0.0
  0
VERTEX
  5
874
  8
DATA
  6
CONTINUOUS
 62
     7
 10
113.34139528193229
 20
821.45819428011259
 30
0.0
  0
VERTEX
  5
875
  8
DATA
  6
CONTINUOUS
 62
     7
 10
113.35098709109749
 20
821.49579532254472
 30
0.0
  0
VERTEX
  5
876
  8
DATA
  6
CONTINUOUS
 62
     7
 10
113.3608569237166
 20
821.5333115255587
 30
0.0
  0
VERTEX
  5
877
  8
DATA
  6
CONTINUOUS
 62
     7
 10
113.3710047797897
 20
821.57074288915476
 30
0.0
  0
VERTEX
  5
878
  8
DATA
  6
CONTINUOUS
 62
     7
 10
113.38143065931691
 20
821.60808941333266
 30
0.0
  0
VERTEX
  5
879
  8
DATA
  6
CONTINUOUS
 62
     7
 10
113.3921345622983
 20
821.64535109809276
 30
0.0
  0
VERTEX
  5
87A
  8
DATA
  6
CONTINUOUS
 62
     7
 10
113.4031164887338
 20
821.68252794343493
 30
0.0
  0
VERTEX
  5
87B
  8
DATA
  6
CONTINUOUS
 62
     7
 10
113.41437643862319
 20
821.71961994935884
 30
0.0
  0
VERTEX
  5
87C
  8
DATA
  6
CONTINUOUS
 62
     7
 10
113.4259144119667
 20
821.75662711586517
 30
0.0
  0
VERTEX
  5
87D
  8
DATA
  6
CONTINUOUS
 62
     7
 10
113.4377304087643
 20
821.79354944295324
 30
0.0
  0
VERTEX
  5
87E
  8
DATA
  6
CONTINUOUS
 62
     7
 10
113.44982442901591
 20
821.83038693062338
 30
0.0
  0
VERTEX
  5
87F
  8
DATA
  6
CONTINUOUS
 62
     7
 10
113.4621964727216
 20
821.86713957887559
 30
0.0
  0
VERTEX
  5
880
  8
DATA
  6
CONTINUOUS
 62
     7
 10
113.4748465398814
 20
821.90380738770966
 30
0.0
  0
VERTEX
  5
881
  8
DATA
  6
CONTINUOUS
 62
     7
 10
113.4877746304952
 20
821.94039035712615
 30
0.0
  0
VERTEX
  5
882
  8
DATA
  6
CONTINUOUS
 62
     7
 10
113.50098074456299
 20
821.97688848712426
 30
0.0
  0
VERTEX
  5
883
  8
DATA
  6
CONTINUOUS
 62
     7
 10
113.51446488208499
 20
822.01330177770456
 30
0.0
  0
VERTEX
  5
884
  8
DATA
  6
CONTINUOUS
 62
     7
 10
113.52822704306089
 20
822.04963022886704
 30
0.0
  0
VERTEX
  5
885
  8
DATA
  6
CONTINUOUS
 62
     7
 10
113.542267227491
 20
822.08587384061161
 30
0.0
  0
VERTEX
  5
886
  8
DATA
  6
CONTINUOUS
 62
     7
 10
113.5565854353751
 20
822.1220326129378
 30
0.0
  0
VERTEX
  5
887
  8
DATA
  6
CONTINUOUS
 62
     7
 10
113.5711816667133
 20
822.15810654584595
 30
0.0
  0
VERTEX
  5
888
  8
DATA
  6
CONTINUOUS
 62
     7
 10
113.5860559215056
 20
822.19409563933641
 30
0.0
  0
VERTEX
  5
889
  8
DATA
  6
CONTINUOUS
 62
     7
 10
113.60120819975189
 20
822.22999989340883
 30
0.0
  0
VERTEX
  5
88A
  8
DATA
  6
CONTINUOUS
 62
     7
 10
113.6166385014522
 20
822.26581930806333
 30
0.0
  0
VERTEX
  5
88B
  8
DATA
  6
CONTINUOUS
 62
     7
 10
113.63234682660659
 20
822.3015538832999
 30
0.0
  0
VERTEX
  5
88C
  8
DATA
  6
CONTINUOUS
 62
     7
 10
113.6483331752151
 20
822.33720361911821
 30
0.0
  0
VERTEX
  5
88D
  8
DATA
  6
CONTINUOUS
 62
     7
 10
113.66459754727769
 20
822.37276851551871
 30
0.0
  0
VERTEX
  5
88E
  8
DATA
  6
CONTINUOUS
 62
     7
 10
113.6811399427943
 20
822.40824857250107
 30
0.0
  0
VERTEX
  5
88F
  8
DATA
  6
CONTINUOUS
 62
     7
 10
113.6979603617649
 20
822.44364379006561
 30
0.0
  0
VERTEX
  5
890
  8
DATA
  6
CONTINUOUS
 62
     7
 10
113.7150588041896
 20
822.47895416821245
 30
0.0
  0
VERTEX
  5
891
  8
DATA
  6
CONTINUOUS
 62
     7
 10
113.73243527006839
 20
822.51417970694104
 30
0.0
  0
VERTEX
  5
892
  8
DATA
  6
CONTINUOUS
 62
     7
 10
113.75008975940131
 20
822.54932040625158
 30
0.0
  0
VERTEX
  5
893
  8
DATA
  6
CONTINUOUS
 62
     7
 10
113.7679850241083
 20
822.5843027930531
 30
0.0
  0
VERTEX
  5
894
  8
DATA
  6
CONTINUOUS
 62
     7
 10
113.7860838161093
 20
822.61905339425402
 30
0.0
  0
VERTEX
  5
895
  8
DATA
  6
CONTINUOUS
 62
     7
 10
113.8043861354044
 20
822.65357220985459
 30
0.0
  0
VERTEX
  5
896
  8
DATA
  6
CONTINUOUS
 62
     7
 10
113.82289198199349
 20
822.68785923985502
 30
0.0
  0
VERTEX
  5
897
  8
DATA
  6
CONTINUOUS
 62
     7
 10
113.8416013558767
 20
822.72191448425463
 30
0.0
  0
VERTEX
  5
898
  8
DATA
  6
CONTINUOUS
 62
     7
 10
113.86051425705379
 20
822.75573794305421
 30
0.0
  0
VERTEX
  5
899
  8
DATA
  6
CONTINUOUS
 62
     7
 10
113.8796306855251
 20
822.78932961625321
 30
0.0
  0
VERTEX
  5
89A
  8
DATA
  6
CONTINUOUS
 62
     7
 10
113.8989506412906
 20
822.82268950385185
 30
0.0
  0
VERTEX
  5
89B
  8
DATA
  6
CONTINUOUS
 62
     7
 10
113.9184741243501
 20
822.85581760585023
 30
0.0
  0
VERTEX
  5
89C
  8
DATA
  6
CONTINUOUS
 62
     7
 10
113.9382011347036
 20
822.88871392224792
 30
0.0
  0
VERTEX
  5
89D
  8
DATA
  6
CONTINUOUS
 62
     7
 10
113.9581316723513
 20
822.92137845304535
 30
0.0
  0
VERTEX
  5
89E
  8
DATA
  6
CONTINUOUS
 62
     7
 10
113.9782657372929
 20
822.95381119824242
 30
0.0
  0
VERTEX
  5
89F
  8
DATA
  6
CONTINUOUS
 62
     7
 10
113.99860332952861
 20
822.98601215783924
 30
0.0
  0
VERTEX
  5
8A0
  8
DATA
  6
CONTINUOUS
 62
     7
 10
114.0191444490583
 20
823.01798133183536
 30
0.0
  0
VERTEX
  5
8A1
  8
DATA
  6
CONTINUOUS
 62
     7
 10
114.0398890958822
 20
823.04971872023134
 30
0.0
  0
VERTEX
  5
8A2
  8
DATA
  6
CONTINUOUS
 62
     7
 10
114.06083727000021
 20
823.08122432302685
 30
0.0
  0
VERTEX
  5
8A3
  8
DATA
  6
CONTINUOUS
 62
     7
 10
114.0819889714123
 20
823.11249814022165
 30
0.0
  0
VERTEX
  5
8A4
  8
DATA
  6
CONTINUOUS
 62
     7
 10
114.1033442001182
 20
823.14354017181631
 30
0.0
  0
VERTEX
  5
8A5
  8
DATA
  6
CONTINUOUS
 62
     7
 10
114.1249029561185
 20
823.17435041781084
 30
0.0
  0
VERTEX
  5
8A6
  8
DATA
  6
CONTINUOUS
 62
     7
 10
114.1466652394126
 20
823.20492887820456
 30
0.0
  0
VERTEX
  5
8A7
  8
DATA
  6
CONTINUOUS
 62
     7
 10
114.1686310500008
 20
823.23527555299825
 30
0.0
  0
VERTEX
  5
8A8
  8
DATA
  6
CONTINUOUS
 62
     7
 10
114.1908003878832
 20
823.26539044219101
 30
0.0
  0
VERTEX
  5
8A9
  8
DATA
  6
CONTINUOUS
 62
     7
 10
114.21317325305969
 20
823.29527354578374
 30
0.0
  0
VERTEX
  5
8AA
  8
DATA
  6
CONTINUOUS
 62
     7
 10
114.23574964553021
 20
823.32492486377578
 30
0.0
  0
VERTEX
  5
8AB
  8
DATA
  6
CONTINUOUS
 62
     7
 10
114.25852956529479
 20
823.3543443961679
 30
0.0
  0
VERTEX
  5
8AC
  8
DATA
  6
CONTINUOUS
 62
     7
 10
114.2815130123533
 20
823.38353214295933
 30
0.0
  0
VERTEX
  5
8AD
  8
DATA
  6
CONTINUOUS
 62
     7
 10
114.304699986706
 20
823.41248810415016
 30
0.0
  0
VERTEX
  5
8AE
  8
DATA
  6
CONTINUOUS
 62
     7
 10
114.3280904883528
 20
823.44121227974097
 30
0.0
  0
VERTEX
  5
8AF
  8
DATA
  6
CONTINUOUS
 62
     7
 10
114.35168451729361
 20
823.4697046697313
 30
0.0
  0
VERTEX
  5
8B0
  8
DATA
  6
CONTINUOUS
 62
     7
 10
114.3754820735285
 20
823.49796527412093
 30
0.0
  0
VERTEX
  5
8B1
  8
DATA
  6
CONTINUOUS
 62
     7
 10
114.3994831570573
 20
823.52599409291042
 30
0.0
  0
VERTEX
  5
8B2
  8
DATA
  6
CONTINUOUS
 62
     7
 10
114.42368776788039
 20
823.55379112609955
 30
0.0
  0
VERTEX
  5
8B3
  8
DATA
  6
CONTINUOUS
 62
     7
 10
114.4480959059975
 20
823.58135637368832
 30
0.0
  0
VERTEX
  5
8B4
  8
DATA
  6
CONTINUOUS
 62
     7
 10
114.47270757140861
 20
823.60868983567661
 30
0.0
  0
VERTEX
  5
8B5
  8
DATA
  6
CONTINUOUS
 62
     7
 10
114.4975227641139
 20
823.63579151206443
 30
0.0
  0
VERTEX
  5
8B6
  8
DATA
  6
CONTINUOUS
 62
     7
 10
114.52254148411311
 20
823.66266140285188
 30
0.0
  0
VERTEX
  5
8B7
  8
DATA
  6
CONTINUOUS
 62
     7
 10
114.5477637314066
 20
823.68929950803897
 30
0.0
  0
VERTEX
  5
8B8
  8
DATA
  6
CONTINUOUS
 62
     7
 10
114.57318950599389
 20
823.71570582762558
 30
0.0
  0
VERTEX
  5
8B9
  8
DATA
  6
CONTINUOUS
 62
     7
 10
114.5988188078755
 20
823.74188036161195
 30
0.0
  0
VERTEX
  5
8BA
  8
DATA
  6
CONTINUOUS
 62
     7
 10
114.6246516370511
 20
823.76782310999772
 30
0.0
  0
VERTEX
  5
8BB
  8
DATA
  6
CONTINUOUS
 62
     7
 10
114.65068799352071
 20
823.79353407278313
 30
0.0
  0
VERTEX
  5
8BC
  8
DATA
  6
CONTINUOUS
 62
     7
 10
114.6769278772845
 20
823.81901324996829
 30
0.0
  0
VERTEX
  5
8BD
  8
DATA
  6
CONTINUOUS
 62
     7
 10
114.7033712883423
 20
823.84426064155298
 30
0.0
  0
VERTEX
  5
8BE
  8
DATA
  6
CONTINUOUS
 62
     7
 10
114.7300182266941
 20
823.86927624753719
 30
0.0
  0
VERTEX
  5
8BF
  8
DATA
  6
CONTINUOUS
 62
     7
 10
114.75686869234001
 20
823.89406006792103
 30
0.0
  0
VERTEX
  5
8C0
  8
DATA
  6
CONTINUOUS
 62
     7
 10
114.78392268528
 20
823.91861210270463
 30
0.0
  0
VERTEX
  5
8C1
  8
DATA
  6
CONTINUOUS
 62
     7
 10
114.81118020551411
 20
823.94293235188763
 30
0.0
  0
VERTEX
  5
8C2
  8
DATA
  6
CONTINUOUS
 62
     7
 10
114.8386412530421
 20
823.96702081547039
 30
0.0
  0
VERTEX
  5
8C3
  8
DATA
  6
CONTINUOUS
 62
     7
 10
114.86630582786439
 20
823.99087749345244
 30
0.0
  0
VERTEX
  5
8C4
  8
DATA
  6
CONTINUOUS
 62
     7
 10
114.8941739299805
 20
824.01450238583482
 30
0.0
  0
VERTEX
  5
8C5
  8
DATA
  6
CONTINUOUS
 62
     7
 10
114.9222455593908
 20
824.03789549261592
 30
0.0
  0
VERTEX
  5
8C6
  8
DATA
  6
CONTINUOUS
 62
     7
 10
114.9505207160953
 20
824.06105681379699
 30
0.0
  0
VERTEX
  5
8C7
  8
DATA
  6
CONTINUOUS
 62
     7
 10
114.9789994000938
 20
824.08398634937771
 30
0.0
  0
VERTEX
  5
8C8
  8
DATA
  6
CONTINUOUS
 62
     7
 10
115.0076816113862
 20
824.10668409935795
 30
0.0
  0
VERTEX
  5
8C9
  8
DATA
  6
CONTINUOUS
 62
     7
 10
115.036567349973
 20
824.12915006373794
 30
0.0
  0
VERTEX
  5
8CA
  8
DATA
  6
CONTINUOUS
 62
     7
 10
115.0656566158535
 20
824.15138424251757
 30
0.0
  0
VERTEX
  5
8CB
  8
DATA
  6
CONTINUOUS
 62
     7
 10
115.0949494090282
 20
824.1733866356966
 30
0.0
  0
VERTEX
  5
8CC
  8
DATA
  6
CONTINUOUS
 62
     7
 10
115.124445729497
 20
824.19515724327516
 30
0.0
  0
VERTEX
  5
8CD
  8
DATA
  6
CONTINUOUS
 62
     7
 10
115.1541455772599
 20
824.21669606525336
 30
0.0
  0
VERTEX
  5
8CE
  8
DATA
  6
CONTINUOUS
 62
     7
 10
115.1840489523168
 20
824.23800310163131
 30
0.0
  0
VERTEX
  5
8CF
  8
DATA
  6
CONTINUOUS
 62
     7
 10
115.21415585466799
 20
824.25907835240889
 30
0.0
  0
VERTEX
  5
8D0
  8
DATA
  6
CONTINUOUS
 62
     7
 10
115.24446628431291
 20
824.27992181758611
 30
0.0
  0
VERTEX
  5
8D1
  8
DATA
  6
CONTINUOUS
 62
     7
 10
115.27498024125209
 20
824.30053349716275
 30
0.0
  0
VERTEX
  5
8D2
  8
DATA
  6
CONTINUOUS
 62
     7
 10
115.3056977254853
 20
824.32091339113902
 30
0.0
  0
VERTEX
  5
8D3
  8
DATA
  6
CONTINUOUS
 62
     7
 10
115.3056977254853
 20
824.32091339113902
 30
0.0
  0
SEQEND
  5
8D4
  8
DATA
  6
CONTINUOUS
 62
     7
  0
LINE
  5
4F2
  8
DATA
  6
CONTINUOUS
 62
     7
 10
539.0
 20
858.31180236860655
 30
0.0
 11
100.0
 21
858.31180236860655
 31
0.0
  0
LINE
  5
4F3
  8
DATA
  6
CONTINUOUS
 62
     7
 10
980.64413108128463
 20
964.9844859255503
 30
0.0
 11
799.03307900561981
 21
918.31952426858845
 31
0.0
  0
LINE
  5
4F4
  8
DATA
  6
CONTINUOUS
 62
     7
 10
879.11027415752187
 20
875.30279206433966
 30
0.0
 11
997.00112161362847
 21
905.85730320340326
 31
0.0
  0
LINE
  5
4F5
  8
DATA
  6
CONTINUOUS
 62
     7
 10
537.69999999999993
 20
1248.6851721263749
 30
0.0
 11
101.2999999999999
 21
1248.6851721263749
 31
0.0
  0
LINE
  5
4F6
  8
DATA
  6
CONTINUOUS
 62
     7
 10
537.69999999999993
 20
1232.328181594032
 30
0.0
 11
101.2999999999998
 21
1232.328181594032
 31
0.0
  0
LINE
  5
4F7
  8
DATA
  6
CONTINUOUS
 62
     7
 10
537.69999999999993
 20
1049.9999999999859
 30
0.0
 11
101.3000000000001
 21
1049.9999999999859
 31
0.0
  0
LINE
  5
4F8
  8
DATA
  6
CONTINUOUS
 62
     7
 10
101.2999999999999
 20
1248.6851721263749
 30
0.0
 11
101.2999999999999
 21
1049.9999999999859
 31
0.0
  0
LINE
  5
4F9
  8
DATA
  6
CONTINUOUS
 62
     7
 10
537.69999999999993
 20
1248.6851721263749
 30
0.0
 11
537.69999999999993
 21
1049.9999999999859
 31
0.0
  0
LINE
  5
4FA
  8
DATA
  6
CONTINUOUS
 62
     7
 10
118.9999999999999
 20
1248.6851721263749
 30
0.0
 11
118.9999999999999
 21
1250.507022636255
 31
0.0
  0
LINE
  5
4FB
  8
DATA
  6
CONTINUOUS
 62
     7
 10
129.9999999999998
 20
1250.507022636255
 30
0.0
 11
129.9999999999998
 21
1248.6851721263749
 31
0.0
  0
LINE
  5
4FC
  8
DATA
  6
CONTINUOUS
 62
     7
 10
119.9999999999999
 20
1251.507022636255
 30
0.0
 11
128.9999999999998
 21
1251.507022636255
 31
0.0
  0
ARC
  5
4FD
  8
DATA
  6
CONTINUOUS
 62
     7
 10
119.9999999999999
 20
1250.507022636255
 30
0.0
 40
1.0
 50
90.0
 51
180.0
  0
ARC
  5
4FE
  8
DATA
  6
CONTINUOUS
 62
     7
 10
128.9999999999998
 20
1250.507022636255
 30
0.0
 40
1.0
 50
0.0
 51
90.0
  0
LINE
  5
4FF
  8
DATA
  6
CONTINUOUS
 62
     7
 10
509.0
 20
1248.6851721263749
 30
0.0
 11
509.0
 21
1250.507022636255
 31
0.0
  0
LINE
  5
500
  8
DATA
  6
CONTINUOUS
 62
     7
 10
520.0
 20
1250.507022636255
 30
0.0
 11
520.0
 21
1248.6851721263749
 31
0.0
  0
LINE
  5
501
  8
DATA
  6
CONTINUOUS
 62
     7
 10
510.0
 20
1251.507022636255
 30
0.0
 11
519.0
 21
1251.507022636255
 31
0.0
  0
ARC
  5
502
  8
DATA
  6
CONTINUOUS
 62
     7
 10
510.0
 20
1250.507022636255
 30
0.0
 40
1.0
 50
90.0
 51
180.0
  0
ARC
  5
503
  8
DATA
  6
CONTINUOUS
 62
     7
 10
519.0
 20
1250.507022636255
 30
0.0
 40
1.0
 50
0.0
 51
90.0
  0
LINE
  5
504
  8
DATA
  6
CONTINUOUS
 62
     7
 10
121.6676287900536
 20
1039.7874927997971
 30
0.0
 11
113.1806977254853
 21
1039.7874927997971
 31
0.0
  0
LINE
  5
505
  8
DATA
  6
CONTINUOUS
 62
     7
 10
113.1806977254853
 20
1039.7874927997971
 30
0.0
 11
113.1806977254853
 21
1049.9999999999859
 31
0.0
  0
LINE
  5
506
  8
DATA
  6
CONTINUOUS
 62
     7
 10
121.6676287900536
 20
1039.7874927997971
 30
0.0
 11
121.6676287900536
 21
1049.9999999999859
 31
0.0
  0
LINE
  5
507
  8
DATA
  6
CONTINUOUS
 62
     7
 10
537.69999999999993
 20
965.0
 30
0.0
 11
537.69999999999993
 21
858.31180236860655
 31
0.0
  0
LINE
  5
508
  8
DATA
  6
CONTINUOUS
 62
     7
 10
101.3000000000001
 20
965.0
 30
0.0
 11
101.3000000000001
 21
858.31180236860655
 31
0.0
  0
CIRCLE
  5
509
  8
DATA
  6
CONTINUOUS
 62
     7
 10
808.69999999999993
 20
-563.0
 30
0.0
 40
3.0
  0
LINE
  5
50A
  8
DATA
  6
CONTINUOUS
 62
     7
 10
806.86152236891496
 20
-563.0
 30
0.0
 11
810.53847763109434
 21
-563.0
 31
0.0
  0
LINE
  5
50B
  8
DATA
  6
CONTINUOUS
 62
     7
 10
808.69999999999993
 20
-564.83847763108486
 30
0.0
 11
808.69999999999993
 21
-561.16152236891367
 31
0.0
  0
CIRCLE
  5
50C
  8
DATA
  6
CONTINUOUS
 62
     7
 10
871.70000000000005
 20
-563.0
 30
0.0
 40
3.0
  0
LINE
  5
50D
  8
DATA
  6
CONTINUOUS
 62
     7
 10
869.86152236891485
 20
-563.0
 30
0.0
 11
873.53847763109445
 21
-563.0
 31
0.0
  0
LINE
  5
50E
  8
DATA
  6
CONTINUOUS
 62
     7
 10
871.70000000000005
 20
-564.83847763108486
 30
0.0
 11
871.70000000000005
 21
-561.16152236891367
 31
0.0
  0
CIRCLE
  5
50F
  8
DATA
  6
CONTINUOUS
 62
     7
 10
871.70000000000005
 20
-393.0
 30
0.0
 40
3.0
  0
LINE
  5
510
  8
DATA
  6
CONTINUOUS
 62
     7
 10
869.86152236891485
 20
-393.0
 30
0.0
 11
873.53847763109445
 21
-393.0
 31
0.0
  0
LINE
  5
511
  8
DATA
  6
CONTINUOUS
 62
     7
 10
871.70000000000005
 20
-394.83847763108491
 30
0.0
 11
871.70000000000005
 21
-391.16152236891372
 31
0.0
  0
CIRCLE
  5
512
  8
DATA
  6
CONTINUOUS
 62
     7
 10
808.69999999999993
 20
-393.0
 30
0.0
 40
3.0
  0
LINE
  5
513
  8
DATA
  6
CONTINUOUS
 62
     7
 10
806.86152236891496
 20
-393.0
 30
0.0
 11
810.53847763109434
 21
-393.0
 31
0.0
  0
LINE
  5
514
  8
DATA
  6
CONTINUOUS
 62
     7
 10
808.69999999999993
 20
-394.83847763108491
 30
0.0
 11
808.69999999999993
 21
-391.16152236891372
 31
0.0
  0
ARC
  5
515
  8
DATA
  6
CONTINUOUS
 62
     7
 10
319.50561607625048
 20
-45.61284105477705
 30
0.0
 40
3.59561771494739
 50
46.608263839432738
 51
133.3917361605653
  0
ARC
  5
516
  8
DATA
  6
CONTINUOUS
 62
     7
 10
319.50991882488768
 20
1245.9323319104431
 30
0.0
 40
3.6250000000000662
 50
49.411701374459561
 51
130.58829862554171
  0
CIRCLE
  5
517
  8
DATA
  6
CONTINUOUS
 62
     7
 10
842.54999999999995
 20
724.35000000000002
 30
0.0
 40
3.0000000000000182
  0
LINE
  5
518
  8
DATA
  6
CONTINUOUS
 62
     7
 10
840.7703234855137
 20
723.88875006364651
 30
0.0
 11
844.3296765144953
 21
724.81124993635603
 31
0.0
  0
LINE
  5
519
  8
DATA
  6
CONTINUOUS
 62
     7
 10
843.01124993635358
 20
722.57032348551388
 30
0.0
 11
842.08875006364599
 21
726.12967651448741
 31
0.0
  0
CIRCLE
  5
51A
  8
DATA
  6
CONTINUOUS
 62
     7
 10
903.77828054233646
 20
740.16962762343485
 30
0.0
 40
3.0000000000000182
  0
LINE
  5
51B
  8
DATA
  6
CONTINUOUS
 62
     7
 10
901.99860402785009
 20
739.70837768708134
 30
0.0
 11
905.5579570568317
 21
740.63087755979075
 31
0.0
  0
LINE
  5
51C
  8
DATA
  6
CONTINUOUS
 62
     7
 10
904.23953047868974
 20
738.38995110894871
 30
0.0
 11
903.31703060598238
 21
741.94930413792224
 31
0.0
  0
CIRCLE
  5
51D
  8
DATA
  6
CONTINUOUS
 62
     7
 10
885.44401818167319
 20
559.80096398229546
 30
0.0
 40
3.0000000000000182
  0
LINE
  5
51E
  8
DATA
  6
CONTINUOUS
 62
     7
 10
883.66434166718693
 20
559.33971404594195
 30
0.0
 11
887.22369469616854
 21
560.26221391865158
 31
0.0
  0
LINE
  5
51F
  8
DATA
  6
CONTINUOUS
 62
     7
 10
885.9052681180267
 20
558.02128746780943
 30
0.0
 11
884.98276824531922
 21
561.58064049678308
 31
0.0
  0
CIRCLE
  5
520
  8
DATA
  6
CONTINUOUS
 62
     7
 10
946.42905194923765
 20
575.60683809191175
 30
0.0
 40
3.0000000000000182
  0
LINE
  5
521
  8
DATA
  6
CONTINUOUS
 62
     7
 10
944.64937543475139
 20
575.14558815555836
 30
0.0
 11
948.20872846373277
 21
576.06808802826777
 31
0.0
  0
LINE
  5
522
  8
DATA
  6
CONTINUOUS
 62
     7
 10
946.89030188559093
 20
573.82716157742561
 30
0.0
 11
945.96780201288334
 21
577.38651460639949
 31
0.0
  0
LINE
  5
523
  8
DATA
  6
CONTINUOUS
 62
     7
 10
994.05628882160511
 20
917.21958067163325
 30
0.0
 11
996.93733007606875
 21
917.9646686012926
 31
0.0
  0
LINE
  5
524
  8
DATA
  6
CONTINUOUS
 62
     7
 10
999.69151012066754
 20
907.31504455713321
 30
0.0
 11
996.81604499682373
 21
906.57139871290485
 31
0.0
  0
LINE
  5
525
  8
DATA
  6
CONTINUOUS
 62
     7
 10
998.15585772050144
 20
917.24690096496863
 30
0.0
 11
1000.4092777569909
 21
908.53357220156556
 31
0.0
  0
ARC
  5
526
  8
DATA
  6
CONTINUOUS
 62
     7
 10
997.18771008012334
 20
916.99652096091449
 30
0.0
 40
0.9999999999999932
 50
14.49999999999887
 51
104.49999999999881
  0
ARC
  5
527
  8
DATA
  6
CONTINUOUS
 62
     7
 10
999.44113011661329
 20
908.28319219751131
 30
0.0
 40
0.9999999999999932
 50
284.49999999999892
 51
14.500000000000449
  0
LINE
  5
528
  8
DATA
  6
CONTINUOUS
 62
     7
 10
895.22696049225874
 20
-456.0
 30
0.0
 11
895.22696049225874
 21
-458.9970261726985
 31
0.0
  0
LINE
  5
529
  8
DATA
  6
CONTINUOUS
 62
     7
 10
884.22696049225885
 20
-458.9970261726985
 30
0.0
 11
884.22696049225885
 21
-456.0
 31
0.0
  0
LINE
  5
52A
  8
DATA
  6
CONTINUOUS
 62
     7
 10
894.22696049225885
 20
-459.99702617269838
 30
0.0
 11
885.22696049225885
 21
-459.99702617269838
 31
0.0
  0
ARC
  5
52B
  8
DATA
  6
CONTINUOUS
 62
     7
 10
894.22696049225885
 20
-458.9970261726985
 30
0.0
 40
1.0
 50
270.0
 51
0.0
  0
ARC
  5
52C
  8
DATA
  6
CONTINUOUS
 62
     7
 10
885.22696049225885
 20
-458.9970261726985
 30
0.0
 40
1.0
 50
180.0
 51
270.0
  0
LINE
  5
52D
  8
DATA
  6
CONTINUOUS
 62
     7
 10
-550.0
 20
225.0
 30
0.0
 11
2050.0
 21
225.0
 31
0.0
  0
TEXT
  5
52E
  8
DATA
 62
     7
 10
723.70833333333314
 20
1196.0470965281579
 30
0.0
 40
46.302083333333343
  1
卓上使用時
 41
0.7
 11
723.70833333333314
 21
1242.3491798614921
 31
0.0
 73
     3
  0
TEXT
  5
52F
  8
DATA
 62
     7
 10
723.70833333333314
 20
-40.952903471841488
 30
0.0
 40
40.721028645833343
  1
ラックマウント使用時
 41
0.7
 11
723.70833333333314
 21
-0.231874826008152
 31
0.0
 73
     3
  0
ENDSEC
  0
EOF
